» » »

Let Go Bass tabs (ver.2)

Artists:  A B C D E F G H I J K L M N O P Q R S T U V W X Y Z # 

Let Go Bass tabs (ver.2)

Barlow Girl
Rating:
0/5 (0 votes)

Hard to play? Try these video lessons and learn fast.
                Drop D Tuning
INTRO/VERSE
      D     E/F              C
G|------7------------10---------5--------------------------------------|
D|----7----------10-----------5---5------------------------------------|
A|--5-------7/8-------------3------------------------------------------|
D|---------------------------------------------------------------------|

PRE-CHORUS
    A#     D       A#       C
G|---------------------------------------------------------------------|
D|---------------------------------------------------------------------|
A|--11-11--5---5---11--11---33-3333------------------------------------|
D|----------0---0------------------------------------------------------|
ONES NOT ELEVENS

CHORUS
    D    F    D   C    A#   C
G|---------------------------------------------------------------------|
D|-------333-----------------------------------------------------------|
A|--555-------55--333--111--33-----------------------------------------|
D|---------------------------------------------------------------------|

POST CHORUS
    G    A#    F      A
G|---------------------------------------------------------------------|
D|---------------------------------------------------------------------|
A|-------1111---------0-0----------------------------------------------|
D|--555--------33333---------------------------------------------------|

INTERLUDE
    A#    F E D   E F  A#  C  D E  C        A
G|---------------------------------------------------------------------|
D|---------------------------------------------------------------------|
A|--1~-----------------1~--3--5-7/15-15-15-12--------------------------|
D|--------3-2-0~--2-3--------------------------------------------------|
FIFTEEN NOT ONE AND FIVE. TWELVE NOT ONE AND TWO

OUTRO
    G    A#   F    G    A#   F
G|---------------------------------------------------------------------|
D|---------------------------------------------------------------------|
A|-------111------------111--------------------------------------------|
D|--555-------3X---555-------3X----------------------------------------|

OUTRO(CON'T)
    G    A#   F      A    G    A#   F      A    D
G|---------------------------------------------------------------------|
D|---------------------------------------------------------------------|
A|-------111---------0-0-------111---------0-0--5~---------------------|
D|--555-------33333-------555-------33333-------0~---------------------|

INTRO/VERSE X6
PRE CHORUS X1
CHORUS X4
POST CHORUS X2
VERSE X4 (NO BASS ON 3RD TIME RESUME ON 4TH)
INTERLUDE X1
CHORUS X8
PAUSE
CHORUS X8
OUTRO
            
Hard to play? Try these video lessons and learn fast. | Correct




comments powered by Disqus
↑ Back to top | Tablatures and chords are parodies/interpretations of the original songs. You may use it for private study, scholarship, research or language learning purposes only