» » »

Barlow Girl, I Need You To Love Me Tabs (ver.1)

Artists:  A B C D E F G H I J K L M N O P Q R S T U V W X Y Z # 

I Need You To Love Me Tabs (ver.1)

Barlow Girl Tabs
Rating:
0/5 (0 votes)
Hard to play? Try these video lessons and learn fast.
                Band/Artist: Barlow Girl
Place: Pangasinan, Philippines

I'm not 100% sure. . But I think it really jives with the song. .
Hope You like it! Because this is a really great song!

Standard Tuning

Riff 1
Play through intro and verse:
Guitar 1:(Acoustic)
e:-------2-----2-----2-----2---------------------------|
B:---3-----3-----3-----3-------------------------------|
G:-----------------------------------------------------|
D:-1---1-----1-----1-----1-----------------------------|
A:-----------------------------------------------------|
E:-----------------------------------------------------|
   D#

e:-------3-----3-----3-----3---------------------------|
B:---3-----3-----3-----3-------------------------------|
G:-----------------------------------------------------|
D:-----------------------------------------------------|
A:-----------------------------------------------------|
E:-4---4-----4-----4-----4-----------------------------|
   G#

Riff 2:
Guitar 2:(Clean Elctric Guitar)
e:-------3-----3-----3-----3---------------------------|
B:---4-----4-----4-----4-------------------------------|
G:-----------------------------------------------------|
D:-----------------------------------------------------|
A:-6---6-----6-----6-----6-----------------------------|
E:-----------------------------------------------------|
   D#

e:-------3-----3-----3-----3---------------------------|
B:---4-----4-----4-----4-------------------------------|
G:-----------------------------------------------------|
D:-----------------------------------------------------|
A:-----------------------------------------------------|
E:-4---4-----4-----4-----4-----------------------------|
   G#

e:-------3-----3-----3-----3---------------------------|
B:---4-----4-----4-----4-------------------------------|
G:-----------------------------------------------------|
D:-----------------------------------------------------|
A:-3---3-----3-----3-----3-----------------------------|
E:-----------------------------------------------------|
   C

***((Intro))
>>>Riff 1<<<

***((Verse1))
>>>enter Riff 1 then enter Riff 2 from "me"<<<

D#     G#                        D#
Why, Why are you still here with me?
       G#                   D#
Didn't you see what I've done?
       G#                D#           G#     C
In my shame I want to run and hide myself yeah
***((Refrain1))
            G#                 C
But it's here I see the truth
               G#
I don't deserve you

***((Chorus))
D#                          G#
But I need you to love me, and I
D#m                          G#
I won't keep my heart from you this time
                        C              A#
and I'll stop this pretending that i can
             G       G#           D#
Somehow deserve what I already have

>>>Enter Riff 1 again then enter riff 2 from "me" in verse 2<<<

I need you to love me. . . .

***((Verse2))
D#          G#             D#
I, I have wasted so much time
            G#         D#
Pushing you away from me
           G#           D#      G#      C
I just never saw how you could cherish me

***((Refrain))
                 G#                  C
'Cause you're a god who has all things
          G#
And still you want me. . .
>>>Chorus except the last line part)<<<

***((Bridge))
C        G#           D#              A#
Your love makes me forget what i have been
C        G#           D#              A#
Your love makes me see who i really am
C        G#           D#              A#-G#    A#
Your love makes me forget what i have been, oh

I need you to love me. . .

***((Chorus))

End

Plz rate this tab for me. . . This is my first tab. . .

Gusto ko lang batihin yung mga Ednasians sa Pangasinan. At yung pamilya ko, mga barkada
sa Ednas School,sa mga barkada ko sa exceed at mga magagaling bandmates ko sa skul. The
Band(Mark Valdez,Kenneth Miranda,Daryll Sanchez at c Karl Cerezo). . . At siyempre sa 
taong sumuporta sa akin.Malaking pasasalamat ko rin sa teacher ko sa guitara,c teacher
Salamat sa inyong lahat!
            

comments powered by Disqus
↑ Back to top | Barlow Girl Tabs for I Need You To Love Me. Lyrics for acoustic guitar and electric guitar. Tablatures and chords are parodies/interpretations of the original songs. You may use it for private study, scholarship, research or language learning purposes only