» » »

Barlow Girl, Grey Bass tabs (ver.1)

Artists:  A B C D E F G H I J K L M N O P Q R S T U V W X Y Z # 

Grey Bass tabs (ver.1)

Barlow Girl Tabs
 Rating:
4/5 (5 votes)
Grey lessons Tabs too difficult? Try these video lessons and learn fast
1
                Track: Grey
Tuning: EADG

Verse
G|-------------------|
D|-------------------|
A|-------------------|
E|--2-2---5-5---7-7--|

G|-------------------|
D|-------------------|
A|-------------------|
E|--2-2---5-5---0-0--|

G|-----------------------------------|
D|-----------------------------------|
A|-----------------------------------|
E|--2-2---5-5---7-7---0-0-0-0-0-0-0--|

G|-----------------------------------|
D|-----------------------------------|
A|-----------------------------------|
E|--2-2---5-5---0-0---0-0-0-0-0-0-0--|

Pre-chorus (Absolutes are hidden)
G|-----------------------------------------------------------|
D|-----------------------------------------------------------|
A|--5--5--5-5-5---4-4-4--4-4-4---5--5--5-5-5-----------------|
E|---------------------------------------------7-7-7--7-7-7--|

Chorus
G|-------------------------------|
D|-------------------------------|
A|------------------5-5-----5-5--|
E|--2-2-----5-5------------------|

G|-----------------------------------|
D|-----------------------------------|
A|------------------5-5--------------|
E|--2-2-----5-5---------------7-7-7--|

G|-------------------------------|
D|-------------------------------|
A|------------------5-5-----5-5--|
E|--2-2-----5-5------------------|

(justifies these lies)
G|------------------------------------------------------------------|
D|------------------------------------------------------------------|
A|------------------5-5-5-5-5-5-5-5-----------------5-5-5-5---------|
E|--7-7-7-7-7-7-7-7-----------------7-7-7-7-7-7-7-7---------0-0-0-0-|

Post-chorus (life, in this life)
G|-----------------------------------|
D|-----------------------------------|
A|-----------------------------------|
E|--2-2---5-5---7-7-x-x-x-x-x-x-x-x--|

G|-------------------|
D|-------------------|
A|-------------------|
E|--2-2---5-5---0-0--|

(Verse)
G|-------------------|
D|-------------------|
A|-------------------|
E|--2-2---5-5---7-7--|

G|-----------------------------------|
D|-----------------------------------|
A|----------------------4p2-2--------|
E|--2-2---5-5---0-0---0--------5--4--|

G|-------------------|
D|-------------------|
A|-------------------|
E|--2-2---5-5---7-7--|

G|-----------------------------------|
D|-----------------------------------|
A|-----------------------------------|
E|--2-2---5-5---0-0-0-0-0-0-0-0-0-0--|

Pre-chorus

Chorus

(Post-chorus)
G|----------------------------------------|
D|----------------------------------------|
A|---------------------------------4-2----|
E|--2-2---5-5---7-7-------7-7~/0-0-----5--|

G|-----------------------------------|
D|-----------------------------------|
A|-----------------------------------|
E|--2-2---5-5---0-0-0-0-0-0-0-0-0-0--|

Bridge
G|----------------------------------------------|
D|----------------------------------------------|
A|--5---5---5-5---2---4---4---4-2h4-----8-------|
E|----------------------------------------------| x 3

G|-----------------------------------------------------------------------|
D|-----------------------------------------------------------------------|
A|--5---5---5-5---2-----2-2-2-2-2-2-2-2-4-4-4-4-4-4-4-4-4-4-4-4-4-4-4-4--| (8 x 2, 16 x 4)
E|-----------------------------------------------------------------------|

(Chorus)
G|-------------------------------|
D|-------------------------------|
A|------------------5-5-----5-5--|
E|--2-2-----5-5------------------|

G|-----------------------------------|
D|-----------------------------------|
A|------------------5-5--------------|
E|--2-2-----5-5---------------7-7-7--|

G|-------------------------------|
D|-------------------------------|
A|------------------5-5-----5-5--|
E|--2-2-----5-5------------------|

(justifies these lie-hies)
G|-----------------------------------|
D|-----------------------------------|
A|------------------5-5-5-5-5-5-5-5--|
E|--7-7-7-7-7-7-7-7------------------|

Chorus

Outro (grey's my favourite colour)
G|-------------------|
D|-------------------|
A|-------------------|
E|--2-2---5-5---7-7--|
            
Submit corrections

comments powered by Disqus
↑ Back to top | Barlow Girl Bass for Grey. Lyrics for acoustic guitar and electric guitar. 1 Tablatures and chords are parodies/interpretations of the original songs. You may use it for private study, scholarship, research or language learning purposes only