» » »

Enough Bass tabs (ver.1)

Artists:  A B C D E F G H I J K L M N O P Q R S T U V W X Y Z # 

Enough Bass tabs (ver.1)

Barlow Girl
Rating:
0/5 (0 votes)

Hard to play? Try these video lessons and learn fast.
                			                             Enough - Barlowgirl


Tuning: Standard

In this song, the bass does not come in until the intro to the second verse.  The 
changes follow the rhythm guitar so listen to the song to get the timing right.  Enjoy:)


Intro To Verse 2
G|---------------------------------------------------------------------------|
D|---------------------------------------------------------------------------|
A|----------4-4-4-4-2-2-2-2-0-0-0-0---------4-4-4-4-2-2-2-2-0-0-0-0----------|
E|-0-0-0-0-------------------------0-0-0-0-----------------------------------|


Verse 2
G|---------------------------------------------------------------------------|
D|---------------------------------------------------------------------------|
A|--------4-4-4-4-2-2-2-2---------0-0-0-0-0-0-0-0---------2-2-2-2------------|
E|-0-0-0-0----------------0-0-0-0-----------------2-2-2-2---------0-0-0-0----|

G|---------------------------------------------------------------------------|
D|---------------------------------------------------------------------------|
A|-4-4-4-4-2-2-2-2---------0-0-0-0-0-0-0-0---------2-2-2-2-------------------|
E|-----------------0-0-0-0-----------------2-2-2-2---------------------------|


Chorus
G|---------------------------------------------------------------------------|
D|---------------------------------------------------------------------------|
A|---------4-4-4-4-2-2-2-2-0-0-0-0---------4-4-4-4-2-2-2-2-0-0-0-0-----------|
E|-0-0-0-0-------------------------0-0-0-0-------------------------0-0-0-0---|

G|---------------------------------------------------------------------------|
D|---------------------------------------------------------------------------|
A|-4-4-4-4-2-2-2-2-0-0-0-0---------4-4-4-4---------4-4-4-4-2-2-2-2-0-0-0-0---|
E|-------------------------0-0-0-0---------0-0-0-0---------------------------|

G|---------------------------------------------------------------------------|
D|---------------------------------------------------------------------------|
A|---------4-4-4-4-2-2-2-2-0-0-0-0---------4-4-4-4-2-2-2-2-0-0-0-0-----------|
E|-0-0-0-0-------------------------0-0-0-0-------------------------0-0-0-0---|

G|---------------------------------------------------------------------------|
D|---------------------------------------------------------------------------|
A|-4-4-4-4-2-2-2-2-0-0-0-0---------------------------------------------------|
E|---------------------------------------------------------------------------|


Outro (8x)
G|---------------------------------------------------------------------------|
D|---------------------------------------------------------------------------|
A|---------4-4-4-4-2-2-2-2-0-0-0-0-------------------------------------------|
E|-0-0-0-0-------------------------------------------------------------------|

That's it.  It's a very simple, yet powerful song that sends a great message.  If you 

| /  slide up
| \  slide down
| h  hammer-on
| p  pull-off
| ~  vibrato
| +  harmonic
| x  Mute note
            
Hard to play? Try these video lessons and learn fast. | Correct




comments powered by Disqus
↑ Back to top | Tablatures and chords are parodies/interpretations of the original songs. You may use it for private study, scholarship, research or language learning purposes only