» » »

Barlow Girl, Averege Girl Tabs (ver.1)

Artists:  A B C D E F G H I J K L M N O P Q R S T U V W X Y Z # 

Averege Girl Tabs (ver.1)

Barlow Girl Tabs
Rating:
4/5 (1 vote)
Averege Girl lessons Tabs too difficult? Try these video lessons and learn fast
                This is such a fun song to play, so i thought i would share it!

So what im not your avereg girl\i dont meet the standards in this world
---------------------------------------------5-5-5-3-3-3---------------|
---------------------------------------------5-5-5-3-3-3-5-3-----------|
-----------------------------------------------------------------------|
2-2-2-4-4-4-5-5-5-4-4-4-5-5-7-9-----------------------------play this--| 2x
2-2-2-4-4-4-5-5-5-4-4-4-5-5-7-9----------------------------------------|
0-0-0-2-2-2-3-3-3-2-2-2-3-3-5-7----------------------------------------|

Chasing after boys is not my thing
-----------------------------------------------------------------|
-----------------------------------------------------------------|
5-5-5-5-5-5-5-5--------------------------------------------------|
5-5-5-5-5-5-5-5-0-0-0-0-0-0-0-0-2-2-2-2-2-2-2-2-2-2-2-2-2-2-2-2--|
3-3-3-3-3-3-3-3-0-0-0-0-0-0-0-0-2-2-2-2-2-2-2-2-2-2-2-2-2-2-2-2--|
----------------2-2-2-2-2-2-2-2-0-0-0-0-0-0-0-0-0-0-0-0-0-0-0-0--|

-----------------------------------5-5-3-3-----5-5-3-3--------|
-----------------------------------5-5-3-3-----5-5-3-3--------|
5-5-5-5-5-5-5-5-4-4-4-4-4-4-4-4-------------------------------|
5-5-5-5-5-5-5-5-4-4-4-4-4-4-4-4-2-2--------2-2----------------|
3-3-3-3-3-3-3-3-2-2-2-2-2-2-2-2-2-2--------2-2----------------|
--------------------------------0-0--------0-0----------------|

Chorus
----------------------------------------------------------------------|
----------------------------------------------------------------------|
--------------------------------5-5-5-5-5-5-5-5-5-5-5-5-5-5-5-5-------|
2-2-2-2-2-2-2-2-2-2-2-2-2-2-2-2-5-5-5-5-5-5-5-5-5-5-5-5-5-5-5-5-------|
2-2-2-2-2-2-2-2-2-2-2-2-2-2-2-2-3-3-3-3-3-3-3-3-3-3-3-3-3-3-3-3-------|
0-0-0-0-0-0-0-0-0-0-0-0-0-0-0-0---------------------------------------|

---------------------------------------------------------------------|
---------------------------------------------------------------------|
---------------------------------------------------------------------|
5-5-5-5-5-5-5-5-5-5-5-5-5-5-5-5-0-0-0-0-0-0-0-0-0-0-0-0-0-0-0-0------|
5-5-5-5-5-5-5-5-5-5-5-5-5-5-5-5-0-0-0-0-0-0-0-0-0-0-0-0-0-0-0-0------|
3-3-3-3-3-3-3-3-3-3-3-3-3-3-3-3-2-2-2-2-2-2-2-2-2-2-2-2-2-2-2-2------| repeat


Back to the verse
  Sleep, its the only thing for me
 Bridge
--------          3-2---3-2---2---3-2---0---3-0---3--------3--------------|
--------          ----3-----3---4-----4---1-----1---4-1---1-4---4---------|
8-----   Hermonics--------------------------------------0-----------------|
8------           --------------------------------------------------------|
6-----            --------------------------------------------------------|
            

comments powered by Disqus
↑ Back to top | Barlow Girl Tabs for Averege Girl. Lyrics for acoustic guitar and electric guitar. Tablatures and chords are parodies/interpretations of the original songs. You may use it for private study, scholarship, research or language learning purposes only