» » »

Bark Psychosis, Nothing Feels Tabs (ver.1)

Artists:  A B C D E F G H I J K L M N O P Q R S T U V W X Y Z # 

Nothing Feels Tabs (ver.1)

Bark Psychosis Tabs
 Rating:
4/5 (4 votes)
Nothing Feels lessons Tabs too difficult? Try these video lessons and learn fast
                -----------------------------------------------------
           NOTHING FEELS : Bark Psychosis
-----------------------------------------------------

Tuning: standard

Intro/Main

e|--------------------------------------------------|
B|-----3--------------------------------------------|
G|---2----------------------------------------------|
D|-------0-0-0--------------------------------------|
A|--------------2-----------------------------------|
E|-----------------0-0-0----------------------------|

When you play this the second time (and every other 
time), the transition from the open E back to the 
starting note is almost simultaneous, which is why 
it is a good idea to fingerpick

Verse 1
        
e|----0---------------------------------------------|
B|--------------------------------------------------|
G|--2-----------------------------------------------|
D|------0-0-0---------------------------------------|
A|-------------2------------------------------------|
E|---------------0-0-0------------------------------|

...Same applies here


e|-------------------0-----0-----0------------------|
B|----0------------0---0-----0-----0--0-------------|
G|------0--------0-------0-----0--------0-----------|
D|-------------2------------------------------------|
A|--3--------3--------------------------------------|
E|--------------------------------------------------|


Verse 2

  "feel the earth and shingle"
e|------2-------2---------2-------------------------|
B|--------3-------3---------3-----------------------|
G|----2-------2---------2---------------------------|
D|--0-------0---------0-----------------------------|
A|--------------------------------------------------|
E|--------------------------------------------------|

  "rushing sky"
e|------2-------0-----0-----------------------------|
B|--------3-------3-----3---3-----------------------|
G|----2-------2-----------2-------------------------|
D|--0-------0-------0-------------------------------|
A|--------------------------------------------------|
E|--------------------------------------------------|


Bridge

e|----------0---------------------------------------|
B|--------0-----------------------------------------|
G|------6-------------------------------------------|
D|----6---------------------------------------------|
A|--0-----------------------------------------------|
E|--------------------------------------------------|

For this, count six beats to a bar and come in on 
the second beat. 

Outro

e|--------------------------------------------------|
B|----3--------3---------2---------2----------------|
G|--2--------2---------2---------2------------------|
D|------0-0-0-----0-0-0-----0-0-0-----0-0-0---------|
A|--------------------------------------------------|
E|--------------------------------------------------|

The spacing here is deliberate, to illustrate the
transition thing. 
            
Submit corrections

comments powered by Disqus
↑ Back to top | Bark Psychosis Tabs for Nothing Feels. Lyrics for acoustic guitar and electric guitar. Tablatures and chords are parodies/interpretations of the original songs. You may use it for private study, scholarship, research or language learning purposes only