» » »

Donence Tabs (ver.1)

Artists:  A B C D E F G H I J K L M N O P Q R S T U V W X Y Z # 

Donence Tabs (ver.1)

Baris Manco
Rating:
0/5 (0 votes)

Hard to play? Try these video lessons and learn fast.
                bariş manco donence BY FURKAN ARASLI
HPE YOU ENJOY FEEL FREE TO ASK QUESTIONS AND SEND MESSAGES
( E:--------------------------------------------------------------|
( B:--------------------------------------------------------------|
2 ( G:------------------------------------------------------------|
kez ( D:----------------------------------------------------------|
( A:------------------3-2-----------------------------------------|
( E:--0---0-1---1-3-------3-5-------------------------------------|




( E:--------------------/------------------------------------------|
( B:--------------------/------------------------------------------|
2 ( G:--------------------/----------------------------------------|
kez ( D:--2-2---2-2-----0---/---3-3---3-3-----0--------------------|
( A:--------------3-----/---------------3--------------------------|
( E:--------------------/------------------------------------------|




E:---------------------------------------------------------------------------|
B:---------------------------------------------------------------------------|
G:---------------------------------------------------------------------------|
D:--4-4-4---2-4-5---5-7-9------------------------5-7-9-----------------------|
A:------------------------9---9-7-5-7---9-7-9-10-------9---7-5-7---5-3-2-----|
E:---------------------------------------------------------------------------|


( E:--------------------/------------------------------------------|
( B:--------------------/------------------------------------------|
2 ( G:--------------------/----------------------------------------|
kez ( D:--2-2---2-2-----0---/---3-3---3-3-----0--------------------|
( A:--------------3-----/---------------3--------------------------|
( E:--------------------/------------------------------------------|


E:---------------------------------------------------------------------------|
B:---------------------------------------------------------------------------|
G:---------------------------------------------------------------------------|
D:-4-4-4---4-2-4-5---7-9------------------------5-7-9------------------------|
A:-----------------------9---9-7-5-7---9-7-9-10-------9---7-5-7-7-5-3-2------|
E:---------------------------------------------------------------------------|


( E:--------------------/------------------------------------------|
( B:--------------------/------------------------------------------|
2 ( G:--------------------/----------------------------------------|
kez ( D:--2-2---2-2-----0---/---3-3---3-3-----0--------------------|
( A:--------------3-----/---------------3--------------------------|
( E:--------------------/------------------------------------------|


E:---------------------------------------------------------------------------|
B:---------------------------------------------------------------------------|
G:---------------------------------------------------------------------------|
D:-4-4-4---4-2-4-5---7-9------------------------5-7-9------------------------|
A:-----------------------9---9-7-5-7---9-7-9-10-------9---7-5-7-7-5-3-2------|
E:---------------------------------------------------------------------------|


( E:--------------------/------------------------------------------|
( B:--------------------/------------------------------------------|
2 ( G:--------------------/----------------------------------------|
kez ( D:--2-2---2-2-----0---/---3-3---3-3-----0--------------------|
( A:--------------3-----/---------------3--------------------------|
( E:--------------------/------------------------------------------|
            
Hard to play? Try these video lessons and learn fast. | Correct




comments powered by Disqus
↑ Back to top | Tablatures and chords are parodies/interpretations of the original songs. You may use it for private study, scholarship, research or language learning purposes only