» » »

Barenaked Ladies, Pinch Me Tabs (ver.4)

Artists:  A B C D E F G H I J K L M N O P Q R S T U V W X Y Z # 

Pinch Me Tabs (ver.4)

Barenaked Ladies Tabs
Rating:
0/5 (0 votes)
Pinch Me lessons Tabs too difficult? Try these video lessons and learn fast
                -------------------------------------------------------------------------------
-------------------------------------------------------------------------------

Tuning: Standard

So pretty much all of the Pinch Me tabs (intros) I have seen are pretty far 
off, so after searching numerous places, this is the collaboration I have made.
I think its pretty close. Play it kinda slow, timing is the hardest part. Listen
to the song. Theres a lot of potential improv to be done between the notes, as
you will hear in the actual song/live performances.

INTRO/VERSE
e|------------------------------------|--------------------------------------|
B|-----1------------------------------|------1-------------------------------|
G|-----------------------0------------|----------------0---------------------|
D|--------------0--------0---0h2/3\2--|---------------0--------0-0h2/3\2-----|
A|----------------2-2h3---------------|------------------2-2h3---------------|
E|-0h1----1h3-3-----------------------|--0h1---1h3-3-------------------------|

"All my stuffs here anyway" part right before chorus
e|------------------------------------|
B|------1--1-1-1-1-1-1-1--------------|
G|------0--0-0-0-0-0-0-0--------------|
D|------x--x-x-x-x-x-x-x--------------|
A|------x--x-x-x-x-x-x-x--------------|
E|-0h1--1--3-3-3-3-3-3-3--------------|

chords I don't know) Work to get the strum pattern down.

It's like a dream ya try to remem-  ber but its gone then you
e|--3--------------------------------3---------------------------------------|
B|--3--------------------------------3---------------------------------------|
G|--0--------------------------------0---------------------------------------|
D|--2--------------------------------0---------------------------------------|
A|--3--------------------------------2---------------------------------------|
E|--x--------------------------------3---------------------------------------|

Try to scream but it only com-      es out as a yawn then you
e|--x--------------------------------x---------------------------------------|
B|--1--------------------------------3---------------------------------------|
G|--0--------------------------------2---------------------------------------|
D|--0--------------------------------0---------------------------------------|
A|--1--------------------------------0---------------------------------------|
E|--0--------------------------------2---------------------------------------|

Try to see the world bey-           ond your front door   
e|--3--------------------------------3-----------------------------x----x----|
B|--3--------------------------------3-----------------------------1----3----|
G|--0--------------------------------0-----------------------------0----0----|
D|--2--------------------------------0-----------------------------0----0----|
A|--3--------------------------------2-----------------------------1----3----|
E|--x--------------------------------3-----------------------------0----0----|

BRIDGE (from same as above)
    Pinch me,   Pinch me,     Cause I'm still,      asleep
e|----x-------------0----------------x-----------------x---------------------|
B|----3-------------1----------------3-----------------1---------------------|
G|----0-------------0----------------0-----------------0---------------------|
D|----0-------------2----------------0-----------------0---------------------|
A|----3-------------0----------------3-----------------1---------------------|
E|----0-------------x----------------0-----------------0---------------------|

    Please God,  Tell me,     That I am still asleep
e|----x-------------0----------------x---------------------------------------|
B|----3-------------1----------------3---------------------------------------|
G|----0-------------0----------------0---------------------------------------|
D|----0-------------2----------------0---------------------------------------|
A|----3-------------0----------------3---------------------------------------|
E|----0-------------x----------------0---------------------------------------|

ENDING (not the guitar solo at the end)
      Try to figure out what             All this is for
      Try to see the world be-           yond your front door
      Try to figure out what             All this is for
e|------------3--------------------------------3------------------x-----x----|
B|------------3--------------------------------3------------------1-----3----|
G|------------0--------------------------------0------------------0-----0----|
D|------------2--------------------------------0------------------0-----0----|
A|------------3--------------------------------2------------------1-----3----|
E|------------x--------------------------------3------------------0-----0----|

And then their is that little solo at the end which I cannot tab. Enjoy, I think
this is pretty good.

| /  slide up
| \  slide down
| h  hammer-on
| p  pull-off
| ~  vibrato
| +  harmonic
| x  Mute note
===============================================================================
            
Submit corrections

comments powered by Disqus
↑ Back to top | Barenaked Ladies Tabs for Pinch Me. Lyrics for acoustic guitar and electric guitar. Tablatures and chords are parodies/interpretations of the original songs. You may use it for private study, scholarship, research or language learning purposes only