» » »

Pinch Me Tabs

Artists:  A B C D E F G H I J K L M N O P Q R S T U V W X Y Z # 

Pinch Me Tabs

(ver. 1)
Barenaked Ladies Tabs
 Rating:
4/5 (4 votes)
    Pinch Me lessons Tabs too difficult? Try these video lessons and learn fast
                Pinch me (Radio Version)
Barenaked ladies

Chords used in song;

   F  G  C  D/F#  Am
e--1--3--0---------0-------------------------------------|
b--1--3--1---3-----1-------------------------------------|
g--2--0--0---2-----2-------------------------------------|
d--3--0--2---------2-------------------------------------|
a--3--2--3---------0-------------------------------------|
e--1--3------2-------------------------------------------|

INTRO/Verse


                      Repeat until "Colder than it looks outside"
  F     G     C                   D/F#
e-----------------------------||------------------------------------|
b-----1-----------1-----------||------3-3------3-------1-----1/3----|
g-----------0---0-------------||------2---2------2-------0----------|
d-------------------0/2-3-2---||------------------------------------|
a-------------3---------------||------------------------------------|
e-0/1---1/3-------------------||--0/2-------0/2-----0/1----1-1/3----|


Chorus

C G F D/F#
C G F G
C G F D/F#
C G F

Bridge

Am G F G
            
Submit corrections

↑ Back to top | Barenaked Ladies Tabs for Pinch Me. Lyrics for acoustic guitar and electric guitar. Tablatures and chords are parodies/interpretations of the original songs. You may use it for private study, scholarship, research or language learning purposes only