» » »

One Week Tabs (ver.1)

Artists:  A B C D E F G H I J K L M N O P Q R S T U V W X Y Z # 

One Week Tabs (ver.1)

Barenaked Ladies
Rating:
0/5 (0 votes)

Tabs too difficult? Try these video lessons and learn fast.
                -------------------------------------------------------------------------------
                             One Week (acoustic) - Barenaked Ladies
-------------------------------------------------------------------------------

Tuning: Standard: Capo 2.

  Chorus
e|---3--x--x--x--3--3--x--x--x--x--|
B|---3--x--x--x--3--3--x--x--x--x--|
G|---0--x--x--x--0--0--x--x--x--x--|
D|---0--x--x--x--2--3--x--x--x--x--|  x4
A|---2--x--x--x--3--2--x--x--x--x--|
E|---3--x--x--x--------x--x--x--x--|

  Verse
e|--3--x--x--3--x--x--|
B|--3--x--x--3--x--x--|
G|--0--x--x--0--x--x--|
D|--0--x--x--2--x--x--|  x29  or  as many as you need to do the verse
A|--2--x--x--3--x--x--|
E|--3--x--x-----x--x--|  

  Pre-chorus
e|--3--------3------|
B|--3--3--3--3------|
G|--0--2--2--0------|
D|--0--0--0--0h2p0--|  x3
A|--2--0--2--3------|
E|-----2------------|


  Chorus  x4


  Verse 2  x16


  Verse 2 [part 2]
e|--3--x--x--x--x--|      e|--3~--|
B|--3--x--x--x--x--|      B|--3~--|
G|--0--x--x--x--x--|      G|--0~--|
D|--0--x--x--x--x--|  x3  D|--3~--|
A|--2--x--x--x--x--|      A|--2~--|
E|--3--x--x--x--x--|      E|------|

  Verse 2 [part 3]
e|--3--x--x--3--x--x--|
B|--3--x--x--3--x--x--|
G|--0--x--x--0--x--x--|
D|--0--x--x--2--x--x--|  x? I couldn't be botherd to count lol
A|--2--x--x--3--x--x--|
E|--3--x--x-----x--x--|


  Pre-chorus  x3

  Chorus  x5

  Verse chords  x15


So yeh there you have it. Pretty easy to be honest.

You can watch the video at:


Then play along to that.


Enjoy!
x


| /  slide up
| \  slide down
| h  hammer-on
| p  pull-off
| ~  vibrato
| +  harmonic
| x  Mute note
===============================================================================
            
Tabs too difficult? Try these video lessons and learn fast.




comments powered by Disqus
↑ Back to top | Tablatures and chords are parodies/interpretations of the original songs. You may use it for private study, scholarship, research or language learning purposes only