» » »

Moonstone Tabs (ver.1)

Artists:  A B C D E F G H I J K L M N O P Q R S T U V W X Y Z # 

Moonstone Tabs (ver.1)

Barenaked Ladies
Rating:
0/5 (0 votes)

Hard to play? Try these video lessons and learn fast.
                Barenaked Ladies
"Moonstone"

Tuning: DADAAD

Verse

D|-------------------0---------------------0--------------|
A|--------------0-------0--0-----------0-------0--0-------|
A|-----------0---0--------0--0------0---0--------0--0-----|
D|--------------------------------------------------------|
A|-(0)--0h2----------------------0------------------------|
D|--------------------------------------------------------|

D|--------0-----------------------------------0--------------|
A|-----------0-0--------------------------0-------0--0-------|
A|------------0--------0---------------0---0--------0--0-----|
D|-4-4h5------------4------2-0---0h2-------------------------|
A|-----------------------------------------------------------|
D|-----------------------------------------------------------|

Chorus x2 - "I will..."

D|---------------0---------------------0-------------------|
A|----------0-------0--0-----------0-------0--0------------|
A|-------0---0--------0--0------0---0--------0--0----------|
D|---5-----------------------4-----------------------------|
A|---------------------------------------------------------|
D|---------------------------------------------------------|

"...shoulder the winter snow"

D|-----0---------------0---------------0--------------|
A|--------0-0-------0----0---------0-------0--0-------|
A|---------0--------------------0---0--------0--0-----|
D|----------------------------------------------------|
A|--2------------0------------------------------------|
D|---------------------------5------------------------|

End on 500000

Verse x2
Chorus x2

Bridge x2 - "Moonstone has never..."

D|--0---0---0---0---0--0---0---0---0---0---0---0---0---0---0---0---|
A|--0---0---0---0---0--0---0---0---0---0---0---0---0---0---0---0---|
A|--0---0---0---0---0--0---0---0---0---0---0---0---0---0---0---0---|
D|--0---0---2---2---0--0---0---0---0---0---0---0---0---0---0---0---|
A|--2---2---0---0---0--0---5---4---2---2---4---4---5---5---5---5---|
D|------------------5--5-------------------------------------------|

Repeat chorus riff x2

Chorus

End on 500000
            
Hard to play? Try these video lessons and learn fast. | Correct




comments powered by Disqus
↑ Back to top | Tablatures and chords are parodies/interpretations of the original songs. You may use it for private study, scholarship, research or language learning purposes only