» » »

Maybe Katie Tabs (ver.1)

Artists:  A B C D E F G H I J K L M N O P Q R S T U V W X Y Z # 

Maybe Katie Tabs (ver.1)

Barenaked Ladies
Rating:
0/5 (0 votes)

Hard to play? Try these video lessons and learn fast.
                Barenaked Ladies
Everything to Everyone

Guitar I (E A D G B E) -clean, electric-transcribed for other instruments
Guitar II (E A D G B E) -lead, electric-distorted
Guitar III (E A D G B E) -rhythm, electric-distorted
Guitar IV (E A D G B E) -Acoustic

INTRO: (this isn't perfect, play around w/ it. its extremely close tho!)
Guitar I
e|--------------------------|---------------------------------------------|
B|--------------------------|-9-7-5-5-7-9-9-10-9-7-5-5-7-9-10-9-7-5-5-7-9-|
G|--------------------------|------7----------------7--------------7------|
D|--------------------------|---------------------------------------------|
A|-9-9-9-10-9-9-9-10-9-9-9-9|---------------------------------------------|
E|--------------------------|---------------------------------------------|

Chorus 
Guitar's 2 & 3
e|----------|   |----|
B|------3---|   |----|
G|-2-2--2-1-|   |-2~-|
D|-2-2--0-2-|   |-2~-|
A|-0-0----2-|   |-0~-|
E|--------0-|x4 |----| let it ring out last time

Guitar 1
e|-------------------------------------|
B|-/14-14/7-9-10-10/7-5---7-9-10-9-7-5-|
G|---------------------4/6-------------|
D|-------------------------------------|
A|-------------------------------------|
E|-------------------------------------|

VERSE I:
Guitar IV
    A      D    E
e|------------2----|
B|-2-2-2-2-------0-|
G|-2-2-2-2--2------|
D|-2-2-2-2-0----2--|
A|-0-0-0-0---------|
E|-------------0---| x4 laid back strum

CHORUS:
Guitar's 2 & 3
e|----------|   
B|------3---|   
G|-2-2--2-1-|   
D|-2-2--0-2-|   
A|-0-0----2-|   
E|--------0-|x4 

Guitar 1
e|---------------------------------|
B|-10-9-7-5----7-9-14-7-9-10-9-7-5-|
G|----------4/6--------------------|
D|---------------------------------|
A|---------------------------------|
E|---------------------------------|

VERSE II:
Guitars 2 & 3-LOTS OF DISTORTION!!!
    D           E         A               D
e|-----------------------------------------------|
B|-3-3-3-3-3---------------------------3-3-3-3-3-|
G|-2-2-2-2-2-1-1-1-1-1--2-2-2-2-2-2-2--2-2-2-2-2-|   
D|-0-0-0-0-0-2-2-2-2-2--2-2-2-2-2-2-2--0-0-0-0-0-|   
A|-----------2-2-2-2-2--0-0-0-0-0-0-0------------|   
E|-----------0-0-0-0-0---------------------------| x3
Then:
------------------------|
--3-3-3-3-3-------------|
--2-2-2-2-2--1-1-1-1-1--|
--0-0-0-0-0--2-2-2-2-2--|
-------------2-2-2-2-2--|
-------------0-0-0-0-0--|

Chorus:
Guitar's 2 & 3
e|----------|   |----|
B|------3---|   |----|
G|-2-2--2-1-|   |-2~-|
D|-2-2--0-2-|   |-2~-|
A|-0-0----2-|   |-0~-|
E|--------0-|x4 |----| let it ring out last time

Guitar 1   (below...NOT THE 57TH & 1014TH FRET, etc!)
e|---------------------------------------------------|
B|-/14-14/7-9-10-10/7-5757---7-9-10/14121412-14-9-10-|
G|------------------------4/6------------------------|
D|---------------------------------------------------|
A|---------------------------------------------------|
E|---------------------------------------------------|

Verse III:
    A      D    E                                             (FEEDBACK from
e|------------2------|------------2----|------------2----3---|-------2-2-2-
B|-2-2-2-2-------0-2-|-2-2-2-2-------0-|-2-2-2-2-------0--3--|-2-2-2-3-3-3-
G|-2-2-2-2--2------2-|-2-2-2-2--2------|-2-2-2-2--2--------2-|-2-2-2-2-2-2-
D|-2-2-2-2-0----2--2-|-2-2-2-2-0----2--|-2-2-2-2-0----2------|-2-2-2-0-0-0-
A|-0-0-0-0---------0-|-0-0-0-0---------|-0-0-0-0-------------|-0-0-0-------
E|-------------0-----|-------------0---|-------------0-------|-------------
Guitar's 2 & 3)
---------|
---------|
--1-1-1--|
--2-2-2--|
--2-2-2--|
--0-0-0--|

VERSE IV:
Guitars 2 & 3-LOTS OF DISTORTION!!!
     D           E         A               D
e|-----------------------------------------------|
B|-3-3-3-3-3---------------------------3-3-3-3-3-|
G|-2-2-2-2-2-1-1-1-1-1--2-2-2-2-2-2-2--2-2-2-2-2-|   
D|-0-0-0-0-0-2-2-2-2-2--2-2-2-2-2-2-2--0-0-0-0-0-|   
A|-----------2-2-2-2-2--0-0-0-0-0-0-0------------|   
E|-----------0-0-0-0-0---------------------------| x3
Then:
------------------------|
--3-3-3-3-3-------------|
--2-2-2-2-2--1-1-1-1-1--|
--0-0-0-0-0--2-2-2-2-2--|
-------------2-2-2-2-2--|
-------------0-0-0-0-0--|

SOLO:  Guitar 3 plays verse over it
Guitar II
e|---------------------------------------------------------------------
B|---------------------------------------------------------------------
G|-9-9-9-9-9-9-9-9-9-9-9-9-9-9-9-9-9-9-9-9-9-9-9-9-9-9-9-9-9-9-9-9-9-9-
D|---------------------------------------------------------------------
A|---------------------------------------------------------------------
E|---------------------------------------------------------------------

-------------------------------------------|
-------------------------------------------|
9-9-9-9-9-9-7-6---7-6-----9-9-9-9-9-9-9-9--|
----------------9-----9-7------------------|
-------------------------------------------|
-------------------------------------------|

CHORUS:
Guitar's 2 & 3
e|----------|
B|------3---|
G|-2-2--2-1-|
D|-2-2--0-2-|
A|-0-0----2-|
E|--------0-| x4                       

Guitar I enters on 2nd repeat, D chord
e|---------------------------------------|
B|-14/12/10-9-10-9-7-5----14/12/10-14-12-|
G|--------------------4/6----------------|
D|---------------------------------------|
A|---------------------------------------|
E|---------------------------------------|
Guitar II
e|-----|
B|-----|
G|-2~~-|
D|-2~~-|
A|-0~~-|
E|-----|
Guitar I
e|-------|
B|-10v~~-|
G|-------|
D|-------|
A|-------|
E|-------|

Note: My Guitar 1's leads in the chorus aren't 100% perfect...but ALMOST there....sooo close!
            
Hard to play? Try these video lessons and learn fast. | Correct




comments powered by Disqus
↑ Back to top | Tablatures and chords are parodies/interpretations of the original songs. You may use it for private study, scholarship, research or language learning purposes only