>
 >
Lovers In A Dangerous Time

Lovers In A Dangerous Time Bass Tabs

Barenaked Ladies - Lovers In A Dangerous Time chords, tabs, tablatures, lyrics

Guitar lessons | Add/correct | Request | Top 50 tabs Artists:  A B C D E F G H I J K L M N O P Q R S T U V W X Y Z 0-9

Lovers In A Dangerous Time Bass Tabs – Barenaked Ladies

CD, Sheet music, Poster

Do you like Lovers In A Dangerous Time? Share with your friends now
Bass TabsChordsChords v2Tabs

Tuning: Standard

Notes: This is done on an electric standup bass not a guitar bass, it is bowed in the
verses and bridge and I believe he pitzed the chorus because it has a swing feel to it
also the chorus might seem confusing but to understand it you have to imagine each two 
notes is a connected 8th notes also this is my first tab
Intro/verse repeat 6 times
G|-------------------------|
D|-------------------------|
A|-------------------------|
E|-5~~~~--7~~~~--3~~--0~~--|
Chorus with swing feel repeat 2 times
G|------------------------------------------------------------------------------------|
D|--------------------------5---5-----------------------------------------------------|
A|-------4-2---2-------5------5----5---2----------------------------------------------|
E|-5-0-5-----2---2--3---------------------3-------------------------------------------|
verse repeat 4 times
G|-------------------------|
D|-------------------------|
A|-------------------------|
E|-5~~~~--7~~~~--3~~--0~~--|
chorus repeat 4 times
G|---------------------------------------------------------------------------------|
D|--------------------------5---5--------------------------------------------------|
A|-------4-2---2-------5------5----5---2-------------------------------------------|
E|-5-0-5-----2---2--3---------------------3----------------------------------------|
bridge/bass solo same as verse repeat 4 times
G|-------------------------|
D|-------------------------|
A|-------------------------|
E|-5~~~~--7~~~~--3~~--0~~--|
bridge/chorus repeat till fade outro chorus does speed up signifigantly
G|------------------------------------------------------------------------------------|
D|--------------------------5---5-----------------------------------------------------|
A|-------4-2---2-------5------5----5---2----------------------------------------------|
E|-5-0-5-----2---2--3---------------------3-------------------------------------------|
| /  slide up
| \  slide down
| h  hammer-on
| p  pull-off
| ~  vibrato
| +  harmonic
| x  Mute note
===============================================================================





Comments


Popular Barenaked Ladies tabs & chords
Four Seconds Chords
Get In Line Chords
Jerome Chords
Maybe Not Chords
These Apples Chords
You Will Be Waiting Chords
Down To Earth Tabs
Pinch Me 1 Tabs
Pinch Me 5 Tabs
Vanishing Ukulele


Song lyrics



↑ Back to top | Tablatures and chords are parodies/interpretations of the original songs. You may use it for private study, scholarship, research or language learning purposes only
© 2014 AZChords.com Contact us | Privacy policy | DMCA | Add/correct tabs | Request tabs | Top 50 tabs