» » »

Barenaked Ladies, He Makes Me Want Her Again Tabs (ver.1)

Artists:  A B C D E F G H I J K L M N O P Q R S T U V W X Y Z # 

He Makes Me Want Her Again Tabs (ver.1)

Barenaked Ladies Tabs
Rating:
0/5 (0 votes)
He Makes Me Want Her Again lessons Tabs too difficult? Try these video lessons and learn fast
                -------------------------------------------------------------------------------
	          HE MAKES ME WANT HER AGAIN – Ed Robertson
-------------------------------------------------------------------------------

Tuning: Standard

e|---------------------------------------------------------------------------|
B|---------------3-------------3-------------3-------------3-------3---------|
G|-------------0--(0)-(0)----0--(0)-(0)----0--(0)-(0)----0-------0-----------|
D|-----------0------(0)----0------(0)----0------(0)----0-------0-------------| x2
A|-------------------------------------3-------------3-----------------------|
E|---------3-------------2-----------------------------------2---------------|

                                 (Intro)

e|---------------------------------------------------------------------------|
B|---------------3-------------3-------------3-------------3-----------------|
G|-------------0--(0)-(0)----0--(0)-(0)----0--(0)-(0)----0—-(0)—(0)----------|
D|-----------0------(0)----0------(0)----0------(0)----0------(0)------------| x2
A|---------------------------------------------------3-----------------------|
E|---------3-------------2-------------0-------------------------------------|

	“There’s somethin’ in her smile, everyone loves so much
	No matter what she wears, she looks like a million bucks”

e|-----------------------------------------------------------2----2-3--------|
B|---------------3-------------3-------------1-------1-----3-----3-----------|
G|-------------0--(0)—(0)----0--(0)—(0)----2-------2-----2------2------------|
D|-----------4------(4)----4------(4)----2-------0-----0-------0-------------| x1
A|---------2-------------3-------------0-------2-----------------------------|
E|---------------------------------------------------------------------------|

	“A woman so graceful, so much in love”

e|---------------------------------------------------------------------------|
B|---------------3-------------3-------------3-------------3-------3---------|
G|-------------0--(0)-(0)----0--(0)-(0)----0--(0)-(0)----0-------0-----------|
D|-----------0------(0)----0------(0)----0------(0)----0-------0-------------| x1
A|-------------------------------------3-------------3-----------------------|
E|---------3-------------2-----------------------------------2---------------|

	“He makes me want her again”

e|---------------------------------------------------------------------------|
B|---------------3-------------3-------------3-------------3-----------------|
G|-------------0--(0)-(0)----0--(0)-(0)----0--(0)-(0)----0—-(0)—(0)----------|
D|-----------0------(0)----0------(0)----0------(0)----0------(0)------------| x2
A|---------------------------------------------------3-----------------------|
E|---------3-------------2-------------0-------------------------------------|

	“She’s made it all work out, way it was meant to be
	The trouble with doin’ that, is not doin’ that with me”

e|-----------------------------------------------------------2----2-3--------|
B|---------------3-------------3-------------1-------1-----3-----3-----------|
G|-------------0--(0)—(0)----0--(0)—(0)----2-------2-----2------2------------|
D|-----------4------(4)----4------(4)----2-------0-----0-------0-------------| x1
A|---------2-------------3-------------0-------2-----------------------------|
E|---------------------------------------------------------------------------|

	“He makes her happy, he makes her whole”

e|---------------------------------------------------------------------------|
B|---------------3-------------3-------------3-------------3-------3---------|
G|-------------0--(0)-(0)----0--(0)-(0)----0--(0)-(0)----0-------0-----------|
D|-----------0------(0)----0------(0)----0------(0)----0-------0-------------| x1
A|-------------------------------------3-------------3-----------------------|
E|---------3-------------2-----------------------------------2---------------|

	“He makes me want her again”

e|----------------------------------------------------------------(3)--------|
B|---------------3-------3-------3-------------3-------3-------3-------------|
G|-------------0-------0-------0--(0)-(0)----0-------0-------0--------(0)----|
D|-----------0-------0-------0------(0)----0-------0-------0--------(0)------| x1
A|---------------------------------------3-----------------------------------|
E|---------0-------2-------3---------------------2-------3-------------------|

	“Whatever he’s made of, makes her so sure”

e|----------------------------------------------------------------(0)-------0|
B|---------------3-------------3-------------1-------1-------1-------------0-|
G|-------------0--(0)—(0)----0-—(0)-(0)----0-------0-------0--(0)------0--0--|
D|-----------0------(0)----0------(0)----2-------2-------0------(0)------0---| x1
A|---------3-------------2-------------0-------------------------------------|
E|---------------------------------------------3-------1-------------1-------|

	“He makes the dream I had for us come true for her”

e|---------------------------------------------------------------------------|
B|---------------3-------------3-------------3-------------3-----------------|
G|----------------(0)-(0)----0--(0)-(0)----0--(0)-(0)----0—-(0)—(0)----------|
D|---------0--------(0)----0------(0)----0------(0)----0------(0)------------| x1
A|---------0h2--------------------------------------3------------------------|
E|---------3-------------2-------------0-------------------------------------|

	“She’s such a perfect mom, boy’s almost half her size”


e|---------------------------------------------------------------------------|
B|---------------3-------------3-------------3-------------3-----------------|
G|-------------0--(0)-(0)----0--(0)-(0)----0--(0)-(0)----0—-(0)—(0)----------|
D|-----------0------(0)----0------(0)----0------(0)----0------(0)------------| x1
A|---------------------------------------------------3-----------------------|
E|---------3-------------2-------------0-------------------------------------|

	“He thinks he looks like her, but I know he’s got my eyes”

e|-----------------------------------------------------------------2-3-------|
B|---------------3-------------3-------------1-------1-------1----3----------|
G|-------------0--(0)—(0)----0--(0)—(0)----2-------2-------0-----2-----------|
D|-----------4------(4)----4------(4)----2-------0-------0-----0-------------| x1
A|---------2-------------3-------------0-------2-------3---------------------|
E|---------------------------------------------------------------------------|

	“He is an angel, but he breaks my heart”
	
e|---------------------------------------------------------------------------|
B|---------------3-------------3-------------3-------------3-------3---------|
G|-------------0--(0)-(0)----0--(0)-(0)----0--(0)-(0)----0-------0-----------|
D|-----------0------(0)----0------(0)----0------(0)----0-------0-------------| x1
A|-------------------------------------3-------------3-----------------------|
E|---------3-------------2-----------------------------------2---------------|

	“Cause he makes me want her again”

e|----------------------------------------------------------------(3)--------|
B|---------------3-------3-------3-------------3-------3-------3-------------|
G|-------------0-------0-------0--(0)-(0)----0-------0-------0--------(0)----|
D|-----------0-------0-------0------(0)----0-------0-------0--------(0)------| x1
A|---------------------------------------3-----------------------------------|
E|---------0-------2-------3---------------------2-------3-------------------|

	“Whatever he’s made of, makes her so sure”

e|----------------------------------------------------------------(0)-------0|
B|---------------3-------------3-------------1-------1-------3-------------0-|
G|-------------0--(0)—(0)----0-—(0)-(0)----0-------0-------2--(2)------0--0--|
D|-----------0------(0)----0------(0)----2-------2-------0------(0)------0---| x1
A|---------3-------------2-------------0-------------------------------------|
E|---------------------------------------------3-------2-------------2-------|

	“He makes the dream I had for us come true for her”

e|-----------------------------------------------------------------2-3-------|
B|---------------3-------------3-------------1-------1-------1----3----------|
G|-------------0--(0)—(0)----0--(0)—(0)----2-------2-------0-----2-----------|
D|-----------4------(4)----4------(4)----2-------0-------0-----0-------------| x1
A|---------2-------------3-------------0-------2-------3---------------------|
E|---------------------------------------------------------------------------|

	“He makes her happy, he breaks my heart”

e|---------------------------------------------------------------------------|
B|---------------3-------------3-------------3-------3-----------------------|
G|-------------0--(0)-(0)----0--(0)-(0)----0-------0---0---------------------|
D|-----------0------(0)----0------(0)----0-------0-----0---------------------| x1
A|-------------------------------------3---------------0h2--------------------|
E|---------3-------------2---------------------2-------3---------------------|

	“Cause he makes me want her again.”






| /  slide up
| \  slide down
| h  hammer-on
| p  pull-off
| ~  vibrato
| +  harmonic
| x  Mute note
===============================================================================
            

comments powered by Disqus
↑ Back to top | Barenaked Ladies Tabs for He Makes Me Want Her Again. Lyrics for acoustic guitar and electric guitar. Tablatures and chords are parodies/interpretations of the original songs. You may use it for private study, scholarship, research or language learning purposes only