» » »

Baby Seat Tabs (ver.1)

Artists:  A B C D E F G H I J K L M N O P Q R S T U V W X Y Z # 

Baby Seat Tabs (ver.1)

Barenaked Ladies
Rating:
3/5 (1 vote)

Hard to play? Try these video lessons and learn fast.
                Barenaked Ladies - Baby Seat - Maroon

e|-----------------------------------------|
B|-7-7-7h8p7---7---------------------------|
G|-7-7-------9---7s9-10p9-10p9-------------| Opening/Chorus
D|-7-7-------------------------10s12-10h12-|
A|-5-5-------------------------------------|
E|-----------------------------------------|

Verse

e|-----------------------------------|
B|------7-------7--------------------|
G|--------9-------9----7-9-----7-9---|
D|-9s10------10------9---------------|
A|--------------------------10-------|
E|-----------------------------------|
"You left Billy with the kids and All the selfless things you did with Billy"

Pre Chorus
e|--------------------------------------------------------|
B|--------------------------------------------------------|
G|------------------------------------------7---7-6-6-6-6-|
D|-----10------10-------10------10--------7---7-----------|
A|---10--10--10--10---10--10--10--10----7-----------------|
E|-8--------8-------9--------9--------5-------------------|
"You thought your life would just go by without a pause to wonder, don't be silly"

bridge (mostly electric piano, these are the guitar parts i could hear)
i've placed the notes in time with what is said

e|---------------------------------------------------------------------|
B|---------------------------------------------------------------------|
G|------------14s16---------------------------------------------14s16--|
D|-14(let ring)---------------------------------16-16p14---------------|
A|---------------------------------------------------------------------|
E|---------------------------------------------------------------------|
forty days at sea then she turned and said to me, if we make it back

e|----------------------------------------------------------------|
B|----------------------------------------------------------------|
G|----------------------------------------------------16s14(hold)-|
D|----------------------------------------------------------------|
A|-----------------------12s14------------------------------------|
E|----------------------------------------------------------------|
I'll renounce Jack Kerouac and all of that romantic cr*p


Chorus x2
Verse  x2
prechorus
Chorus
verse  x2
prechorus
chorus x2
bridge
verse x2
chorus play out
            
Hard to play? Try these video lessons and learn fast. | Correct




comments powered by Disqus
↑ Back to top | Tablatures and chords are parodies/interpretations of the original songs. You may use it for private study, scholarship, research or language learning purposes only