>
 >
What A Good Boy

What A Good Boy Bass Tabs

Bare Naked Ladies - What A Good Boy chords, tabs, tablatures, lyrics

Guitar lessons | Add/correct | Request | Top 50 tabs Artists:  A B C D E F G H I J K L M N O P Q R S T U V W X Y Z 0-9

What A Good Boy Bass Tabs – Bare Naked Ladies

CD, Sheet music, Poster

Do you like What A Good Boy? Share with your friends now
Bass TabsChordsTabs
-------------

Note: This is tabbed from the live version on "Disc One: All Their Greatest 
Hits (1991 - 2001)". I'm not entirely sure how accurate this is to the 
original recording on Gordon.

BUT

I'm 99.9% sure its true to the live version.

-------------

Standard tuning.

~ - Held out note

-------------

Intro/Verse 1

G|--------------------------------------|
D|--------------------------------------| x 4
A|----------5--5----3---3---3---3-----5-|
E|---3--3-------------------------------|



Chorus

G|--------------------------------------|
D|--------------------------------------| x 2
A|----------5--5----3---3---3---3-----5-|
E|---3--3-------------------------------|


G|--------------------------------------|
D|---5---4----2----0--------------------| x 2
A|---------------------3~---------------|
E|--------------------------------------|



Verse 2

G|--------------------------------------|
D|--------------------------------------| x 3
A|----------5--5----3--3--3--3-[5-3-0-3]|
E|---3--3-------------------------------|
                                fill

G|--------------------------------------|
D|--------------------------------------|
A|--------5---5-----3-3-3-3-3-3-3-3-3-3-|
E|--3--3--------------------------------|
		    Cressendo
		    *get louder*


Chorus

G|--------------------------------------|
D|--------------------------------------| x 2
A|----------5--5----3---3---3---3-----5-|
E|---3--3-------------------------------|


G|--------------------------------------|
D|---5---4----2----0--------------------| x 3
A|---------------------3~---------------|
E|--------------------------------------|
  on the socond time, bend the C up.
			       *A sting 3rd fret


Verse 3

*this verse is the same as the intro but it has a lot of funky note length 
varriations in it.


Chorus

G|--------------------------------------|
D|--------------------------------------| x 2
A|----------5--5----3---3---3---3----3~-|
E|---3--3-------------------------------|


Refrain/Outro
No Bass 1st time

G|--------------------------------------|
D|--------------------------------------|
A|--------5---5-----3-3-3-3-3-3-3-3-3-3-|
E|--3--3--------------------------------|


Piano Solo

G|--------------------------------------|
D|--------------------------------------| x 2
A|----------5--5----3---3---3---3-------|
E|---3--3----------------------------3--|
Get slower on the last time

-------------

This song is insanely easy. Go and have fun with it.





Comments


Popular Bare Naked Ladies tabs & chords
For You Chords
Grade Nine Chords
When I Fall Chords
Alternative Girlfriend Tabs
In The Car Tabs
Its All Been Done Tabs
Jane Tabs
Light Up My Room 1 Tabs
This Is Where It Ends Tabs
When You Dream Tabs


Song lyrics



↑ Back to top | Tablatures and chords are parodies/interpretations of the original songs. You may use it for private study, scholarship, research or language learning purposes only
© 2014 AZChords.com Contact us | Privacy policy | DMCA | Add/correct tabs | Request tabs | Top 50 tabs