» » »

Bare Naked Ladies, Powder Blue Tabs (ver.1)

Artists:  A B C D E F G H I J K L M N O P Q R S T U V W X Y Z # 

Powder Blue Tabs (ver.1)

Bare Naked Ladies Tabs
 Rating:
4/5 (4 votes)
Powder Blue lessons Tabs too difficult? Try these video lessons and learn fast
                Tuning: Drop bottom E to D & Capo on 2nd Fret

ALL TABS & CHORDS RELATIVE TO TUNING & CAPO

G* = Don't play bottom string of the G chord


INTRO & VERSE TAB:

e|---------------------------------------------------------------------------|
B|----------------------------------------------------------4-2--------------|
G|-------------------------------------------------------2-------------------|
D|-----2-----2----------0-----0----------0-----0------2----------------------|
A|---2-----2-----2----3-----3-----3----1-----1-----1-------------------------|
E|-2-----2-----2----1-----1-----1----0-----0-----0---------------------------|

e|---------------------------------------------------------------------------|
B|---------------------------------------------------------------------------|
G|-----0-----0----------0-----0----------0-----0----------0-----0------------|
D|---2-----2-----2----0-----0-----0----2-----2-----2----1-----1-----1--------|
A|-3-----3-----3----2-----2-----2----0-----0-----0----3-----3-----3----------|
E|---------------------------------------------------------------------------|

NOTE: The second block of tab (above) is played with the lyrics... 
"Apologies from my front door, i couldn't love you more, etc", which appear after the chorus.


CHORUS CHORDS:

Dm           G*                Dm        G*
You're going off the deep end, i'm going over all the things i've gotta say..

()    G*
Apologies from my front door, i couldn't love you more


MIDDLE:

G*     Dm            Am G*             Em        Dm            C        G*   
Baby between you and me love is all we need, you held out your heart so i 
                                      Dm             Am        G*     
could watch it bleed. I never thought you would ever fall into my life so 
  Em                   Dm              C       G*
ban*l but something so light shouldn't hurt at-all.



CHORD TOWARDS END: G* (play this one really loud over & over until the tab bit comes back in)


I am dead certain this tab is correct and hopefully is easy to follow. it's my first tab
so i really hope it's ok!!! Please e-mail me with queeries, suggestions, etc


Thankyou very much,
Henry Willard, 16, England
            
Submit corrections

comments powered by Disqus
↑ Back to top | Bare Naked Ladies Tabs for Powder Blue. Lyrics for acoustic guitar and electric guitar. Tablatures and chords are parodies/interpretations of the original songs. You may use it for private study, scholarship, research or language learning purposes only