» » »

Bare Naked Ladies, One Week Bass tabs (ver.2)

Artists:  A B C D E F G H I J K L M N O P Q R S T U V W X Y Z # 

One Week Bass tabs (ver.2)

Bare Naked Ladies Tabs
Rating:
0/5 (0 votes)
One Week lessons Tabs too difficult? Try these video lessons and learn fast
                Its Been         one week
------------||------------------7-----|-----------------------|---------
------------||*--7-----------5-----5--|--7--------------------|---------
------------||*--------5/22-----------|-----------4--5-----5--|---------
------------||------------------------|-----x--x--------------|--5------



------------7-----|-----------------------||----------------------------
---------5-----5--|--7-------------------*||----------------------------
---5/22-----------|-----4/5-----6-----7--*||----------------------------
------------------|-----------------------||----------------------------


Verse: Hold it now/Chickety china
------------------------|--------------------------||-------------------
7-----9/11-----9--7-----|-----7-----7/9-----7-----*||--7----------------
------------------------|-------------------------*||--------------7----
------------------------|--------------------------||--------9----------



---|--------------------|--------------------------|--------------------
---|--7--------------7--|--7-----9/11-----9-----7--|--7-----9-----7-----
9--|--------7-----9-----|--------------------------|--------------------
---|--------------------|--------------------------|--------------------



------|--------------------------|-----------------------|--------------
------|-----7--------------------|-----------------------|--------------
---9--|--------------------------|--0--x--x--------------|--0--x--x-----
------|-----------x--x--2-----2--|-----------0--2-----2--|--------------


                                 pre chorus
------------|--------------------||-----------------------|-------------
------------|--------------------||*----------------------|-------------
------------|--0--0-----------0--||*--9--(7)-----7-----7--|--4-----5----
---2-----2--|--------0-----2-----||-----------------------|-------------


       3x     CODA 1
-------||-----------------------------|---------------------------|-----
------*||-----7-----x--7-----7--------|---------------------------|-----
---5--*||-----------------------4-----|--12-----12--(12)\7-----7--|-----
-------||-----------------------------|---------------------------|-----



--------------------------|-------------------------|-------------------
---------4/7-----7-----7--|--7----------------------|--------7-----5----
--------------------------|--------5/9-----7-----9--|-------------------
5-------------------------|-------------------------|-------------------



----------------|-------------7--7--6-----9--|---------------------9----
/7--------------|----------------------------|--7--------7--------------
-------4--------|-------7--------------------|-----------------10-------
----------5-----|--5/9-----------------------|--------------------------


        back to verse, 2nd to Coda2        CODA2   (Out Chorus)
\---r--7--|--------------------7\6--||-----||---------------------------
----e-----|--7--------7-----5-------||-----||*--7-----------5-----5-----
----s-----|-------------------------||-----||*--------------------------
-1--t-----|-------------------------||-----||---------------------------



|--------------------------|--------------------------|-----------------
|--7-----------------------|--7-----x--x--x--5-----5--|--7--------------
|-----------x--x--x--x--5--|--------------------------|--------4/5------
|--------------------------|--------------------------|-----------------


                         Outro
----------------||--||------------------------------|-------------------
---------------*||--||*--7--------9/11-----9-----7--|--7-----x--x--x----
5--5--5--7--7--*||--||*-----------------------------|-------------------
----------------||--||------------------------------|-------------------



---------|----------------------|---------------------------||----------
5-----5--|--7-----7/9-----7-----|--7-----x--x--x--5-----5--*||--7-------
---------|----------------------|--------------------------*||----------
---------|----------------------|---------------------------||----------
            

comments powered by Disqus
↑ Back to top | Bare Naked Ladies Bass for One Week. Lyrics for acoustic guitar and electric guitar. Tablatures and chords are parodies/interpretations of the original songs. You may use it for private study, scholarship, research or language learning purposes only