» » »

Bare Naked Ladies, If I Had A Million Dollars Bass tabs (ver.1)

Artists:  A B C D E F G H I J K L M N O P Q R S T U V W X Y Z # 

If I Had A Million Dollars Bass tabs (ver.1)

Bare Naked Ladies Tabs
 Rating:
4/5 (4 votes)
If I Had A Million Dollars lessons Tabs too difficult? Try these video lessons and learn fast
1
                "(1)

I don't read/write tab very well, but I read/write musical score well,
so here's my attempt at translating score into tabs.


Intro:  (first bar is the pickup)

     4 +   1 + 2 + 3 + 4 +   1 + 2 + 3 + 4 +
G|-|-----|-----------------|-----------------|-----------------|-----------------|
D|4|-----|.------0-2-------|-0-------0-------|-------0-2-------|-0-------0------.|
A|4|-----|.0---4-------2---|-----0-----------|-0---4-------2---|-----0----------.|
E|-|-3-4-|-----------------|-------------3-4-|-----------------|-----------------|


Verse: (notice repeats on second stanza)

G|-|-----------------|-----------------|
D|4|-------0-2-------|-0-------0-------|  play 7 times
A|4|-0---4-------2---|-----0-----------|
E|-|-----------------|-------------3-4-|


G|-|-----------------|-----------------|-----------------|-----------------|
D|4|-------0-2-------|-0-------0-------|-2-------2-------|-2-------2-------|
A|4|-0---4-------2---|-----0-------0---|-----2-------2---|-----2-------2-4-|
E|-|-----------------|-----------------|-----------------|-----------------|


Chorus:

G|-|-----------------|-2---1-----------|
D|4|-0-------2-------|---------4---2---|  play 3 times
A|4|-----0-------2---|-----------------|
E|-|-----------------|-----------------|

G|-|-2--1-----------|-----------------|
D|4|--------4---3---|-0-------2-------|
A|4|----------------|-----------------|
E|-|----------------|-----------------|
"            
Submit corrections

comments powered by Disqus
↑ Back to top | Bare Naked Ladies Bass for If I Had A Million Dollars. Lyrics for acoustic guitar and electric guitar. 1 Tablatures and chords are parodies/interpretations of the original songs. You may use it for private study, scholarship, research or language learning purposes only