» » »

Have You Seen My Love Tabs (ver.1)

Artists:  A B C D E F G H I J K L M N O P Q R S T U V W X Y Z # 

Have You Seen My Love Tabs (ver.1)

Bare Naked Ladies
Rating:
0/5 (0 votes)

Hard to play? Try these video lessons and learn fast.
                	HAVE YOU SEEN MY LOVE? - Barenaked Ladies

Tuning: Standard

Notes: This is a great song that is really simple, but I couldn't find a tab for it
so I figured I'd write my first tab and contribute to everyone out there who may not have
time or the experiance necessary to figure something like this out themselves. Hope you
I know it helps me to have the chords that the picking is based on written somewhere
the song, and it'll help newer players get more accustomed to it, so I've done that as 
you can't get the picking down struming sounds good as well.
I might have screwed up the tab in a few places, but after a while you'll get the really
picking pattern and won't even need the tab.
The verses are my interpertation of the song as to how it might sound if the guitar was
only instrument playing (And there was only one of them), so it's not the exact way the
is actually played. Sorry. :-(


Intro:

Have....my love? Have....my love .........little...Have you seen my........
e|-------------------------------------------------------------------------|
B|-------------------------------------------------------------------------|
G|-------------------------------0-----------------------------------------|
D|-------------0--------------2-----------------------------0--------------|
A|-----------2--------------3--------2-1--3--------3--------2--------------|
E|---------3------------------------------------------------3--------------|
                  G                         C               G
Verse 1:

..love                  All that I  want is to  be   your   friend...
e|------0---------------------0-----------3-----------0-----------1--------|
B|1-------1---0---1---3-1-------1---0-------0---1-------1---1-------1------|
G|--0-------0---0---0-----0-------0---0-------0---0-------0---2-------2----|
D|----2---------------------2-----------0-----------2-----------3----------|
A|3---------------------3-----------------------3--------------------------|
E|------------3---------------------3-----------------------1--------------|
  C           G         C           G           C           F

..only friend.ever        known                 All.........need is our
e|------0-----------3-----------0---------------------0-----------3--------|
B|1-------1---0-------0---1-------1---0---1---3-1-------1---0-------0------|
G|--0-------0---0-------0---0-------0---0---0-----0-------0---0-------0----|
D|----2-----------0-----------2---------------------2-----------0----------|
A|3-----------------------3---------------------3--------------------------|
E|------------3-----------------------3---------------------3--------------|
  C           G           C           G         C           G

..love we     agreed......two of us...be          alone
e|------0-----------1-----------0-----------3-----------0------------------|
B|1-------1---1-------1---1-------1---0-------0---1-------1---0---1---3----|
G|--0-------0---2-------2---0-------0---0-------0---0-------0---0---0------|
D|----2-----------3-----------2-----------0-----------2--------------------|
A|3-----------------------3-----------------------3------------------------|
E|------------1-----------------------3-----------------------3------------|
  C           F           C           G           C           G

        In these faded....photographs             You can see how we....
e|------1-----------1-----------0-----------0-----------1-----------1------|
B|1-------1---1-------1---1-------1---1-------1---1-------1---1-------1----|
G|--2-------2---2-------2---0-------0---3-------3---2-------2---2-------2--|
D|----3-----------3-----------2-----------2-----------3-----------3--------|
A|------------------------3-----------3------------------------------------|
E|1-----------1-----------------------------------1-----------1------------|
  F                       C           C7          F

..smile.                  I became a              man in your arms
e|------0-----------0-----------1-----------1-----------0-----------0------|
B|1-------1---1-------1---1-------1---1-------1---1-------1---1-------1----|
G|--0-------0---3-------3---2-------2---2-------2---0-------0---2-------2--|
D|----2-----------2-----------3-----------3-----------2-----------2--------|
A|3-----------3-----------------------------------3-----------0------------|
E|------------------------1-----------1------------------------------------|
  C           C7          F                       C           Am

..now I'm helpless, as a  child.
e|1-----1-----1-----1-----------3-----1-----1-------------------------------|
B|--3-----3-----0-----0---0-------0-----0-----0-----------------------------|
G|----2-----2-----2-----2---0-------0-----0-----0---------------------------|
D|0---------------------------0---------------------------------------------|
A|--------------------------------------------------------------------------|
E|------------------------3-----------3-------------------------------------|
  Dm                      G           G7

Chorus:

    Have you..love?       Have you....love.....   have you....little girl?
e|------0-----------3-----------3-----------0-----------0-----------1-------|
B|1-------1---0-------0---0-------0---1-------1---1-------1---1-------1-----|
G|--0-------0---0-------0---0-------0---0-------0---0-------0---1-------1---|
D|----2-----------0-----------0-----------2-----------2-----------3---------|
A|3-----------------------------------3-----------3-------------------------|
E|------------3-----------3-----------------------------------1-------------|
  C           G                       C           C           Fm

..oh have you    seen my.....
e|---------0-----------3---------------------------------------------------|
B|---1-------1---0-------0-------------------------------------------------|
G|-----0-------0---0-------0-----------------------------------------------|
D|-------2-----------0-----------------------------------------------------|
A|---3---------------------------------------------------------------------|
E|---------------3---------------------------------------------------------|
     C           G

Verse 2 Part 1:

..love                  There was a dream that..both use to share and....
e|------0---------------------0-----------3-----------0-----------1--------|
B|1-------1---0---1---3-1-------1---0-------0---1-------1---1-------1------|
G|--0-------0---0---0-----0-------0---0-------0---0-------0---2-------2----|
D|----2---------------------2-----------0-----------2-----------3----------|
A|3---------------------3-----------------------3--------------------------|
E|------------3---------------------3-----------------------1--------------|
  C           G         C           G           C           F

..swore we....never       wake           now the dreams are nightmares and..
e|------0-----------3-----------0---------------------0-----------3--------|
B|1-------1---0-------0---1-------1---0---1---3-1-------1---0-------0------|
G|--0-------0---0-------0---0-------0---0---0-----0-------0---0-------0----|
D|----2-----------0-----------2---------------------2-----------0----------|
A|3-----------------------3---------------------3--------------------------|
E|------------3-----------------------3---------------------3--------------|
  C           G           C           G         C           G

..truth, to be fair is....dreaming....first mistake
e|------0-----------1-----------0-----------3------------------------------|
B|1-------1---1-------1---1-------1---0-------0----------------------------|
G|--0-------0---2-------2---0-------0---0-------0--------------------------|
D|----2-----------3-----------2-----------0--------------------------------|
A|3-----------------------3------------------------------------------------|
E|------------1-----------------------3------------------------------------|
  C           F           C           G

Solo:

e|-------------------------------------------------------------------------|
B|-------------------------------------------------------------------------|
G|--------------------5-5-5-5-4-2-0-h2-0-----------------------------------|
D|2-0-2--3-2-3--5-3-5--------------------2-0-2-3-0-0-----2-----------2-0-2-|
A|---------------------------------------------------3-5---3-3-2-3-5-------|
E|-------------------------------------------------------------------------|

e|-------------------------------------------------------------------------|
B|-------------------------------------------------------------------------|
G|-------------5-5-5-5-4-2-0-h2--------------------------------------------|
D|3-2-3--5-3-5------------------0-2-3-2-0-2--------------------------------|
A|------------------------------------------3-3----------------------------|
E|-------------------------------------------------------------------------|

Verse 2 Part 2:

        Though we share...memories                      And I swear that's..
e|------1-----------1-----------0-----------0-----------1-----------1------|
B|1-------1---1-------1---1-------1---1-------1---1-------1---1-------1----|
G|--2-------2---2-------2---0-------0---3-------3---2-------2---2-------2--|
D|----3-----------3-----------2-----------2-----------3-----------3--------|
A|------------------------3-----------3------------------------------------|
E|1-----------1-----------------------------------1-----------1------------|
  F                       C           C7          F

..face.                   Did  you  bury  the     woman I     love
e|------0-----------0-----------1-----------1-----------0-----------0------|
B|1-------1---1-------1---1-------1---1-------1---1-------1---1-------1----|
G|--0-------0---3-------3---2-------2---2-------2---0-------0---2-------2--|
D|----2-----------2-----------3-----------3-----------2-----------2--------|
A|3-----------3-----------------------------------3-----------0------------|
E|------------------------1-----------1------------------------------------|
  C           C7          F                       C           Am

..And fall asleep in her  space?
e|1-----1-----1-----1-----------3-----1-----1-------------------------------|
B|--3-----3-----0-----0---0-------0-----0-----0-----------------------------|
G|----2-----2-----2-----2---0-------0-----0-----0---------------------------|
D|0---------------------------0---------------------------------------------|
A|--------------------------------------------------------------------------|
E|------------------------3-----------3-------------------------------------|
  Dm                      G           G7

Outro:

    Have you..love?       Have you... my love.....have you....little girl?
e|------0-----------3-----------3-----------0-----------0-----------1-------|
B|1-------1---0-------0---0-------0---1-------1---1-------1---1-------1-----|
G|--0-------0---0-------0---0-------0---0-------0---0-------0---1-------1---|
D|----2-----------0-----------0-----------2-----------2-----------3---------|
A|3-----------------------------------3-----------3-------------------------|
E|------------3-----------3-----------------------------------1-------------|
  C           G                       C           C           Fm

..oh have you    seen?       Have you    seen?        Have you    seen my
e|---------0-----------3-----------0------------1-----------0-----------3----|
B|---1-------1---0-------0---1-------1---1--------1---1-------1---0-------0--|
G|-----0-------0---0-------0---0-------0----1-------1---0-------0---0-------0|
D|-------2-----------0-----------2------------3-----------2-----------0------|
A|---3-----------------------3------------------------3----------------------|
E|---------------3-----------------------1------------------------3----------|
     C           G           C           Fm           C           G

...love?
e|-x---------------------------------------------------------------------------|
B|-1---------------------------------------------------------------------------|
G|-0---------------------------------------------------------------------------|
D|-2---------------------------------------------------------------------------|
A|-3---------------------------------------------------------------------------|
E|-x---------------------------------------------------------------------------|
            
Hard to play? Try these video lessons and learn fast. | Correct




comments powered by Disqus
↑ Back to top | Tablatures and chords are parodies/interpretations of the original songs. You may use it for private study, scholarship, research or language learning purposes only