» » »

Ok Tabs (ver.1)

Artists:  A B C D E F G H I J K L M N O P Q R S T U V W X Y Z # 

Ok Tabs (ver.1)

Barefoot Truth
Rating:
0/5 (0 votes)

Hard to play? Try these video lessons and learn fast.
                "OK" - Barefoot Truth
Tuning: Standard

I recorded this song on a 75' Martin D-28.

Intro:
    
E|--6/7-----7--8---10--9---8---3---3--5--7--5--3--3---|
B|--7/8-----8--8---10--9---8---3---5--5--7--7--5--3---|
G|--6/7-----7--7---11--10--9---4---4--4--7--7--5--4---| X2
D|-----------------12--11--10--5---0--0--0--0--0--5---|
A|------------------------------------------------5---|
E|------------------------------------------------3---|

Verse:  
E|----------------------0--0---|
B|----------------------0--3---|
G|------0-----0------5--0--2---| X3
D|--4/5---5\4-----5--5--2--0---|
A|--------------3----3--2--0---|
E|----------------------0--0---|
Break away from the day to day direction
face the world with the best intentions
well are you frozen still when the world faces you?


E|--------------0---2--|
B|-----------3--1---3--|
G|--0--2--4--4--0---2--|
D|--2--4--5-----2---0--|
A|--------------3------|
E|---------------------|
Your heart can't hid the truth


Pre-Chorus:   
E|------------------------------------------3---|
B|------------------------------------------0---|
G|------0-----0-----0-----------------------0---|
D|--4/5---5\4---4\2----2p0-----------0------0---|X2
A|-------------------------3--2--2/3---3/2--2---|
E|------------------------------------------3---|
We don't have long
I'm gone

Chorus (Same as intro):  
E|--6/7---7-7--8---10--9---8---3---3--5--7--5--3--3---|
B|--7/8---8-8--8---10--9---8---3---5--5--7--7--5--3---|
G|--6/7---7-7--7---11--10--9---4---4--4--7--7--5--4---| X2
D|-----------------12--11--10--5---0--0--0--0--0--5---|
A|------------------------------------------------5---|
E|------------------------------------------------3---|
Won't leave the road I'm on I'm gone who's coming with me?
There isn't any other way, feels time to close me eyes to see what I've been missing
somehow it feels ok.

Verse:  
E|----------------------0--0---|
B|----------------------0--3---|
G|------0-----0------5--0--2---| X3
D|--4/5---5\4-----5--5--2--0---|
A|--------------3----3--2--0---|
E|----------------------0--0---|
Just like the captain who goes down with his boat, 
or the brave soldier who refuse to leave his post .  
When the world chooses you will ya stand and face your fear?

E|--------------0---2--|
B|-----------3--1---3--|
G|--0--2--4--4--0---2--|
D|--2--4--5-----2---0--|
A|--------------3------|
E|---------------------|
So long, here's to better years

Pre-Chorus:   
E|------------------------------------------3---|
B|------------------------------------------0---|
G|------0-----0-----0-----------------------0---|
D|--4/5---5\4---4\2----2p0-----------0------0---|X2
A|-------------------------3--2--2/3---3/2--2---|
E|------------------------------------------3---|
We don't have long
I'm gone

Chorus (Same as intro):  
E|--6/7---7-7--8---10--9---8---3---3--5--7--5--3--3---|
B|--7/8---8-8--8---10--9---8---3---5--5--7--7--5--3---|
G|--6/7---7-7--7---11--10--9---4---4--4--7--7--5--4---| X2
D|-----------------12--11--10--5---0--0--0--0--0--5---|
A|------------------------------------------------5---|
E|------------------------------------------------3---|
Won't leave the road I'm on I'm gone who's coming with me?
There isn't any other way, feels time to close me eyes to see what I've been missing
somehow it feels ok.




Bridge:      
E|--0--0--0--|
B|--3--3--3--|
G|--2--2--0--|X4
D|--0--0--2--|
A|--------3--|
E|-----------|
Could I have fought the forces? are there such thing as choices?
Or has it been there all along?must we just carry on?

               
E|-----------------0--0--0--0--------0--0--|
B|-----------------0--0--0--0--------1--1--|
G|-----------------2--2--2--2--------0--0--|
D|-----------------2--2--2--2--------2--2--|
A|--3--2-----5--0--0--0--0--0--0h2/3-3--3--|
E|--------3--------------------------------|
well I hope it takes me home, where my seed was sown.

Instrumental/Solo (Same as Intro):

E|--6/7---7-7--8---10--9---8---3---3--5--7--5--3--3---|
B|--7/8---8-8--8---10--9---8---3---5--5--7--7--5--3---|
G|--6/7---7-7--7---11--10--9---4---4--4--7--7--5--4---| 
D|-----------------12--11--10--5---0--0--0--0--0--5---|
A|------------------------------------------------5---|
E|------------------------------------------------3---|

Chorus (Same as intro):  
E|--6/7---7-7--8---10--9---8---3---3--5--7--5--3--3---|
B|--7/8---8-8--8---10--9---8---3---5--5--7--7--5--3---|
G|--6/7---7-7--7---11--10--9---4---4--4--7--7--5--4---| X2
D|-----------------12--11--10--5---0--0--0--0--0--5---|
A|------------------------------------------------5---|
E|------------------------------------------------3---|
Won't leave the road I'm on I'm gone who's coming with me?
There isn't any other way, feels time to close me eyes to see what I've been missing
somehow it feels ok.



Outro (Same as pre-chorus, but half length):
E|------------------------------------------3---|
B|------------------------------------------0---|
G|------0-----0-----0-----------------------0---|
D|--4/5---5\4---4\2----2p0-----------0------0---|
A|-------------------------3--2--2/3---3/2--2---|
E|------------------------------------------3---|
            
Hard to play? Try these video lessons and learn fast. | Correct




comments powered by Disqus
↑ Back to top | Tablatures and chords are parodies/interpretations of the original songs. You may use it for private study, scholarship, research or language learning purposes only