>
 >
Broken Road

Broken Road Guitar Tabs

Barefoot Truth - Broken Road chords, tabs, tablatures, lyrics

Guitar lessons | Add/correct | Request | Top 50 tabs Artists:  A B C D E F G H I J K L M N O P Q R S T U V W X Y Z 0-9

Broken Road Guitar Tabs – Barefoot Truth

CD, Sheet music, Poster

Do you like Broken Road? Share with your friends now
Tabs
----------------------------------------------------------------------------
                             Broken Road  Barefoot Truth
----------------------------------------------------------------------------

I recorded this on my uncles 1930s Squareneck National Resonator, and I play it live on 
Asher Teardrop Weissenborn hallowneck.  I tune this song to Open D  DADF#AD (low to 
I play it lap-slide style, but it can be played regular or bottleneck syle as well.


Intro:
d|-12\-----\5\--2/4--0-------0-2-0--2/4\2p0-------0---5-6-7---------|
A|-----10\-------------0h2p0-----------------0h2p0-----5-6-7---------|
F#|-----------------------------------------------------------0------|
D|-------------------------------------------------------------------|
A|-------------------------------------------------------------------|
D|---------------0---------------------------------------------------|

-2/4--0-------0-2-04p0-0h2p0---------/3-/3-0-----------------|
--------0h2p0-----------------0h2p0---/3-/3-0-----------------|
--------------------------------------------------------------|
--------------------------------------------------------------|     (x 2)
--------------------------------------------------------------|
--0-----------------------------------------------------------|


(verse)
    D                  G                        F
d|-----x------------------------x------------------------|
A|-----x------------------------x------------------------|
F#|----x0h1p0------------------x-0h1p0------------------|
D|---0-x--------0h2p0---5-----0-x-------0h2p0---3--------|
A|-----x------------------------x------------------------|
D|-0---x---------------/5---0---x--------------/3--------|
  D                    G          G       F
------x--------------------------------------------------|
------x--------------------------------------------------|
------x0h1p0---------------------5----------------------|
----0-x--------0h2p0---5----5---------5\3----3-----------|
------x--------------------------------------------------|
--0---x---------------/5---/5--/5---5-----3--------------|

Born again on a island of sale
He lived there six months
too long Only ten out of jail
He looked at me his eyes were haggard and pale
His skin was tarnished and torn
just like a rusted old nail
Well some people pass through
this world with no pain
But Johnny mingled in its
company again and again
He said he wanted to see
paradise and travel so far
All he'd seen of it was standing
behind' those ugly prison bars


pre chorus lick
d|-----------------------------------------------|
A|-----------------------------------------------|
F#|--10----------------7-------------------------|
D|----------10\7---------------------------------|
A|-----------------------------------------------|
D|------10----------7----------------------------|


Chorus:
      D      F      C     G
d|----0------3-----10-----5------------------------|
A|----0------3-----10-----5------------------------|
F#|---0------3-----10-----5------------------------|
D|----0------3-----10-----5------------------------|
A|----0------3-----10-----5------------------------|
D|----0------3-----10-----5------------------------|


D              F                    C
So many good people they come  good people they come,
        G
D              F                     C
So many good people they come, good people they come they
       G
come and they go

(verse 2)
Johnny hailed from the city of thieves
He'd cut his teeth down backwards alleys since 1973
He said he'd had trouble run and that was easy to see
He traveled East to West didn't miss a single penitentiary
I-95 to West Virginia well they caught up in Cincinnati
Crossed the Mason Dixon border, Kansas City, Oklahoma
The Devil on the shoulder of a good hearted man

(Chorus 2)
D              F                    C
So many good people they come  good people they come,
        G
D              F                     C
So many good people they come, good people they come they
       G
come and they go


D               F                   C
Woah' can you out-run the weight of the world,
                    G
the weight of the world when it's holding you down?
D                F                    C
Woah can you out-last the pain of the fall, the pain of
        G
the fall when you fall to the ground?


(Replay intro)

Breakdown:
C DD   C DD   C DD  G  C

(Double Length Chorus)

And that is pretty much it. Listen closely  to the recording for variations throughout the song.





Comments


Popular Barefoot Truth tabs & chords
Roland Chords
Eagle Front Tabs
Home Intro Tabs
Ok Tabs
Roll If Ya Fall Tabs
Trespasser Tabs
Walk Softly Tabs
Windward Intro Tabs
Changes In The Weather Ukulele
Cinimin Summer Ukulele


Song lyrics



↑ Back to top | Tablatures and chords are parodies/interpretations of the original songs. You may use it for private study, scholarship, research or language learning purposes only
© 2014 AZChords.com Contact us | Privacy policy | DMCA | Add/correct tabs | Request tabs | Top 50 tabs