» » »

Bare Egil Band, Heia Norge Tabs (ver.1)

Artists:  A B C D E F G H I J K L M N O P Q R S T U V W X Y Z # 

Heia Norge Tabs (ver.1)

Bare Egil Band Tabs
 Rating:
4.2/5 (5 votes)
Heia Norge lessons Tabs too difficult? Try these video lessons and learn fast
                ==================================|
Group:	Bare Egil Band		  |
Song :	Heia Norge		  |
Taber:	GuitarEspen		  |
==================================|

		
Intro:					      End: 0:07 		    
E|-----------------------------------------------------|
B|---0-0---1-1p0----0-0----0-0----0-0---1-1p0----0-0-0-|
G|---0-0---0-0------0-0----0-0----0-0---0-0------0-0-0-|
D|-2----------------------------2----------------------|
A|-------3----------------------------3--------------2-|
E|---------------3-------7---------------------3-------|

Verse:                  Play 12 times
E|----------------------------------|
B|---0-0---1-1p0---0-0---0-0--------|
G|---0-0---0-0-----0-0---0-0--------|
D|-2--------------------------------|
A|-------3--------------------------|
E|---------------3-----7------------|

Chrous: 0:54									
E|---------------0-0-0---------------------0-0-0----------------------0-0-0------------------------|
B|---------------1-1-0---------------------1-1-0----------------------1-1-0------------------------|
G|-4-4----7-7-0--0-0-0--------------7-7-0--0-0-0-7-7-0--4-4----7-7-0--0-0-0---------7-7-7-7-7-7----|
D|-5-5-0--7-7-0--2-2---5-5-0-5-5-0--7-7-0--2-2---7-7-0--5-5-0--7-7-0--2-2----5-5-0--7-7-7-7-7-7--5-|
A|-5-5-0--5-5-0--3-3---5-5-0-5-5-0--5-5-0--3-3---5-5-0--5-5-0--5-5-0--3-3----5-5-0--5-5-5-5-5-5--5-|
E|-3-3-0---------------3-3-0-3-3-0----------------------3-3-0----------------3-3-0---------------3-|

		  Repeat 15 Times	  End: 2:08
E|------------------------------|-------------3---|
B|---0-0---1-1p0---0-0---0-0----|---0-0---1-0-----|
G|---0-0---0-0-----0-0---0-0----|---0-0---0-0-----|
D|-2----------------------------|-2---------------|
A|-------3----------------------|-------3---------|
E|---------------3-----7--------|-------------3---|

Chorus: 2:09									Repeat until fade out
E|---------------0-0-0---------------------0-0-0----------------------0-0-0------------------------------|
B|---------------1-1-0---------------------1-1-0----------------------1-1-0------------------------------|
G|-4-4----7-7-0--0-0-0--------------7-7-0--0-0-0-7-7-0--4-4----7-7-0--0-0-0---------7-7-7-7-7-7-----7----|
D|-5-5-0--7-7-0--2-2---5-5-0-5-5-0--7-7-0--2-2---7-7-0--5-5-0--7-7-0--2-2----5-5-0--7-7-7-7-7-7--5--7--5-|
A|-5-5-0--5-5-0--3-3---5-5-0-5-5-0--5-5-0--3-3---5-5-0--5-5-0--5-5-0--3-3----5-5-0--5-5-5-5-5-5--5--5--5-|
E|-3-3-0---------------3-3-0-3-3-0----------------------3-3-0----------------3-3-0---------------3-----3-|

[END: 2:57]

Obviously this is a very easy song to play! Enjoy :)
            
Submit corrections

comments powered by Disqus
↑ Back to top | Bare Egil Band Tabs for Heia Norge. Lyrics for acoustic guitar and electric guitar. Tablatures and chords are parodies/interpretations of the original songs. You may use it for private study, scholarship, research or language learning purposes only