» » »

Bare Egil Band, Gal Av Lengsel Tabs (ver.1)

Artists:  A B C D E F G H I J K L M N O P Q R S T U V W X Y Z # 

Gal Av Lengsel Tabs (ver.1)

Bare Egil Band Tabs
Rating:
5/5 (3 votes)
Gal Av Lengsel lessons Tabs too difficult? Try these video lessons and learn fast
                -------------------------------------------------------------------------------
-------------------------------------------------------------------------------

Tuning:standard
Intro:  Gal av lengsel.....
      G           B7         Em              C
e|-------3--|-------2---|------------|-------------0--|
B|----------|-------4---|---------8--|-------------1--|
G|----------|-----------|---------9--|----------0-----|
D|----------|-----------|-------9----|----------------|
A|----------|---2-------|---7--------|-------3--------|
E|---3------|-----------|------------|----------------|


      G           B7         Em              C
e|-------3--|-------2---|------------|-------------0--|
B|----------|-------4---|---------8--|-------------1--|
G|----------|-----------|---------9--|----------0-----|
D|----------|-----------|-------9----|---0------------|
A|----------|---2-------|---7--------|-------3--------|
E|---3------|-----------|------------|----------------|

        G           B7          C           F              D
e|---------3--|---------2--|-------0--|-------------|-------7h8-8p7--5--|   
B|---------3--|---------4--|-------1--|-------1-----|---7---7---7----5--|   
G|------------|------------|----------|-------2-----|---7---------------|   
D|------------|------------|----------|---3---------|---7---------------|   
A|------------|---2--------|---3------|-------------|---5---------------|   
E|---3--------|------------|----------|-------------|-------------------|  
 Nar jeg har en leilighet.....
       G          G on C      G on B       D 
e|--------3--|---------3--|-------3--|--------2----|
B|--------3--|---------3--|-------3--|--------3----|
G|-----------|------------|----------|--------2----|
D|---5-------|---3--------|---2------|---o---------|
A|-----------|------------|----------|-------------|
E|-----------|------------|----------|-------------|


       G          G on C      G on B       D 
e|--------3--|---------3--|-------3--|--------2----|
B|--------3--|---------3--|-------3--|--------3----|
G|-----------|------------|----------|--------2----|
D|---5-------|---3--------|---2------|---o---------|
A|-----------|------------|----------|-------------|
E|-----------|------------|----------|-------------|
       C           D             G                             C
e|--------0--|-------2----|--------3------|-------------|-------0----------------|
B|--------1--|-------3----|--------3------|-------------|-------1----------------|
G|-----------|------------|---------------|-------------|------------------------|
D|-----------|---0--------|---5-----------|---2----0----|------------------------|
A|---3-------|------------|---------------|-------------|---3--------------------|
E|-----------|------------|---------------|-------------|------------------------|
      F                 D
e|-----------|-------7h8--8p7---5---| 
B|-------1---|---7---7----7---------| 
G|-------2---|---7------------------| 
D|---3-------|---7------------------| 
A|-----------|---5------------------| 
E|-----------|----------------------| 

chorus as the intro but with a strum.

This one is dedicated to Eivind Vedå Gilhuus. hope you like it!
===============================================================================
            
Submit corrections

comments powered by Disqus
↑ Back to top | Bare Egil Band Tabs for Gal Av Lengsel. Lyrics for acoustic guitar and electric guitar. Tablatures and chords are parodies/interpretations of the original songs. You may use it for private study, scholarship, research or language learning purposes only