>
 >
Sweet Jesus

Sweet Jesus Guitar Tabs

Barclay James Harvest - Sweet Jesus chords, tabs, tablatures, lyrics

Guitar lessons | Add/correct | Request | Top 50 tabs Artists:  A B C D E F G H I J K L M N O P Q R S T U V W X Y Z 0-9

Sweet Jesus Guitar Tabs – Barclay James Harvest

CD, Sheet music, Poster

Do you like Sweet Jesus? Share with your friends now
ChordsTabsUkulele
#------------------------------------------------------------------------------##

Hi James, after downloading so many songs I felt I had
to add something. As I'm not that good at finding out
chords, please excuse for any errors. I think most of
it is alright. It's a song from a long forgotten band
(I think), and shouldn't be too hard to play.


Sweet Jesus by Barclay James Harvest
(from the album Timehonoured Ghost)

A                D            A              E
    Where's the lady and the time I used to know
        D                    A               D
    I think that I have been on the road to long
A              D               A              E
    Scenes of better days are pictured in my head
         D                A             D
    and haunting me those old familiar songs

(chorus)
D F#-            E              D  F#-          E               D
       Oh sweet Jesus hear me cry,      let me see a clearing sky
D F#-         E            D             A
       for tomorrow I may be back home again
   E                 A            D
       so take the shadow from my eyes

A           D                 A               E
    Sunday morning comes I'm feeling kind of down
       D                  A             D
    I can't see back to where it all began
A           D                 A            E
    And I know you'd, help me if you only could
       D                  A            D
    I don't know why or where or who I am

(chorus)

(solo)
---------------------|-----------------------|----------------------|
-3/7-9-10---9-10-9---|-----7-9-10---10-9-7---|---7-9-7-----9-7---7--|
-------------------9-|-9-9-----------------7-|-9-------9-------9----|
---------------------|-----------------------|----------------------|
---------------------|-----------------------|----------------------|
---------------------|-----------------------|----------------------|

------7--------7---------|----|-------|---------------|---------------|
-9-10---10-9-----10-9-10-|-10-|-10-10-|-10-10-10---10-|-10-10-10---10-|
-------------------------|----|-------|---------------|---------------|
-------------------------|----|-------|---------------|---------------|
-------------------------|----|-------|---------------|---------------|
-------------------------|----|-------|---------------|---------------|

(chorus)





Comments


Popular Barclay James Harvest tabs & chords
African Nights Chords
Waiting For The Right Time Chords
Fifties Child Ukulele
Giving It Up Ukulele
Halfway To Freedom Ukulele
Hymn Ukulele
John Lennons Guitar Ukulele
Looking From The Outside Ukulele
Midnight Drug Ukulele
Say Youll Stay Ukulele


Song lyrics



↑ Back to top | Tablatures and chords are parodies/interpretations of the original songs. You may use it for private study, scholarship, research or language learning purposes only
© 2014 AZChords.com Contact us | Privacy policy | DMCA | Add/correct tabs | Request tabs | Top 50 tabs