» » »

Barclay James Harvest, Suicide Tabs (ver.2)

Artists:  A B C D E F G H I J K L M N O P Q R S T U V W X Y Z # 

Suicide Tabs (ver.2)

Barclay James Harvest Tabs
 Rating:
4/5 (4 votes)
Suicide lessons Tabs too difficult? Try these video lessons and learn fast
1
                Barclay James Harvest
(From Live Tapes 1978)

INTRO
                                                      h   p
[------------------11-12-9-------9-11-12------11-12-11-12-11-9-11-9-9------]
[--12----------------------------------------------------------------------]
[--------------------------------------------------------------------------]
[--------------------------------------------------------------------------]
[--------------------------------------------------------------------------]
[--------------------------------------------------------------------------]

|-----s--------------------------h---------------------------------]
|---12\10-10--9-7-7--------7-9-10-9-7-7-5------10-------10-9-5-7---]
|-------------------------------------------6----------------------]
|------------------------------------------------------------------]
|------------------------------------------------------------------]
|------------------------------------------------------------------]


                                                      h   p
[------------------11-12-9-------9-11-12------11-12-11-12-11-9-11-9-9------]
[--12----------------------------------------------------------------------]
[--------------------------------------------------------------------------]
[--------------------------------------------------------------------------]
[--------------------------------------------------------------------------]
[--------------------------------------------------------------------------]

|-----s--------------------------h---------------------------------]
|---12\10-10--9-7-7--------7-9-10-9-7-7-5------10-------10-9-5-5---]
|-------------------------------------------6----------------------]
|------------------------------------------------------------------]
|------------------------------------------------------------------]
|------------------------------------------------------------------]

1st Verse
I woke [E]up to a [A]feeling, it was [E]cold by my [A]side
You had [C#m]gone with the [A]sunrise, [E] leaving [F#m]tears in my [B]eyes
I got [E]up with a [A]feeling of an [E]emptiness in[A]side
To the [C#m]noise of the [A]sidewalk [E] and the [F#m]silence of my [E]mind

2nd Verse
Well I [E]walked out this [A]morning, down a [E]street with no [A]name
To a [C#m]club called "The [A]Loser", [E]
like a [F#m]dog that's gone [B]lame
Took the [E]club elev[A]ator to the [E]floor with a [A]view
I took [C#m]out life sub[A]scription [E] -
it's the [F#m]only one they [E]do

                                                      h   p
[------------------11-12-9-------9-11-12------11-12-11-12-11-9-11-9-9------]
[--12----------------------------------------------------------------------]
[--------------------------------------------------------------------------]
[--------------------------------------------------------------------------]
[--------------------------------------------------------------------------]
[--------------------------------------------------------------------------]

|-----s--------------------------h-----------------]
|---12\10-10--9-7-7--------7-9-10-9-7-7-5------10--]
|-------------------------------------------6------]
|--------------------------------------------------]
|--------------------------------------------------]
|--------------------------------------------------]


[----16--12-----------16--12---------|----16--14-----------16--14----------]
[-----------14---------------14------|-----------16--12----------16--12----]
[--------------13---------------13---|-------------------------------------]
[------------------------------------|-------------------------------------]
[------------------------------------|-------------------------------------]
[------------------------------------|-------------------------------------]

                           (Fast)
[--16--13------16--13------|-16-13------16-13--------16-13-------16--------]
[--------14-----------14---|------14----------14----------14---------------]
[-----------13-----------13|--------13----------13----------13-------------]
[--------------------------|-----------------------------------------------]
[--------------------------|-----------------------------------------------]
[--------------------------|-----------------------------------------------]

3rd verse
I stepped [F#]out on the [B]guard rail, saw the [F#]crowds slowly [B]part
Heard a [D#m]voice shouting [B]"Don't jump, [F#]
please for [G#m]God's sake let me move my [C#]car!"
Felt a [F#]hand on my [B]shoulder, heard a [F#]voice cry "Just in [B]time!"
Felt the [D#m]quick push, felt the [B]air rush [F#]
Felt the [G#m]sidewalk, fell in [F#]line


SOLO
                                        h       h  p
[------13--14--11-----11--13--14------13-14---13-14-13--11--13--11--11-----]
[--14----------------------------------------------------------------------]
[--------------------------------------------------------------------------]
[--------------------------------------------------------------------------]
[--------------------------------------------------------------------------]
[--------------------------------------------------------------------------]


[--s----------s-----|--------------------s---------------|-----------------]
[14\12--12--11\9--9-|-9--11--12--11--9--9\7--7------12---|--12--11--7-9-9--]
[-------------------|----------------------------8-------|-----------------]
[-------------------|------------------------------------|-----------------]
[-------------------|------------------------------------|-----------------]
[-------------------|------------------------------------|-----------------]


[--14--16---11--14---------------------------------------------------------]
[-------------------14--16---11--14----------------------------------------]
[--------------------------------------13--15---11--13------s------s-------]
[---------------------------------------------------------13\11--11\13-----]
[--------------------------------------------------------------------------]
[--------------------------------------------------------------------------]
                                     b
[---------------------------------14-16-16-14-----14----|--14--------------]
[------------------s----14-16-16---------------16----16-|------16--16--16--]
[-----s----11-13-13\15----------------------------------|------------------]
[---11\13-----------------------------------------------|------------------]
[-------------------------------------------------------|------------------]
[-------------------------------------------------------|------------------]


[--14--16---11--14---------------------------------------------------------]
[---------------------14--16---11--14--------------------------------------]
[----------------------------------------13--15---11--13-------s------s----]
[------------------------------------------------------------13\11--11\13--]
[--------------------------------------------------------------------------]
[--------------------------------------------------------------------------]

                                     b
[---------------------------------14-16-16-14-----14----|
[------------------s----14-16-16---------------16----16-|
[-----s----11-13-13\15----------------------------------|
[---11\13-----------------------------------------------|
[-------------------------------------------------------|
[-------------------------------------------------------|

Ending

Bend the 3rd string up all the time (Union Bend)?

Count how many times he hits the notes

[------------------------------------------------------]
[----6---------7-------8------ 9-------10------11------]
[----8---------9------10------11-------12------13------]
[------------------------------------------------------]
[------------------------------------------------------]
[------------------------------------------------------]
            
Submit corrections

comments powered by Disqus
↑ Back to top | Barclay James Harvest Tabs for Suicide. Lyrics for acoustic guitar and electric guitar. 1 Tablatures and chords are parodies/interpretations of the original songs. You may use it for private study, scholarship, research or language learning purposes only