>
 >
Evergreen

Evergreen Guitar Tabs

Barbra Streisand - Evergreen chords, tabs, tablatures, lyrics

Guitar lessons | Add/correct | Request | Top 50 tabs Artists:  A B C D E F G H I J K L M N O P Q R S T U V W X Y Z 0-9

Evergreen Guitar Tabs – Barbra Streisand

CD, Sheet music, Poster

Do you like Evergreen? Share with your friends now
ChordsTabs


Intro-
       A         (play this twice)        Bm7/A
E-------------------------------------------------------------------|
B--2-----2-----2---0------2-----2----------3----3---2------3----3---|
G----2-----2----------2-----2------------4--4------------4--4-------|  
D------2-----2---2------2-----2---2---4-------4---4----4------4---4-|
A--0---------------0----------------0---------------0---------------|
E-------------------------------------------------------------------|

   Verse 1  A                         B/A7
E----------------------------------------------------------------|
B-2-----2------2--2--------2-----2--4-----4-----4--4-----4-----4-|
G-----2------2----------2------2--------4-----4--------4-----4---|  
D---2-----2----------2-------2--------4-----4---------4-----4----|
A-0---------------0-----------------0----------------0-----------|
E----------------------------------------------------------------|
       Love, ----------soft as an easy chair,
    Verse 1 Bm7/A                   A
E---------------------------------------------------------------|
B-------3-----3--------3----3-------2-----2----------2--------2-|
G-----4-----4--------4-----4-------2-----2---------2--------2---|  
D---4-----4--------4-----4-------2-----2----2---2---------2-----|
A-0--------------0--------------0-------------0-----------------|
E-------------------------------------------------------4-------|
        love, --fresh as the morning air,
     Verse 1    F#m                        C#m7
E-----------------2-----------------2----------------------------|
B-------2------------------2-----------------5-----5------5----5-|
G-----2--------2--------2--------2--------4-----4-------4----4---|  
D---4-------4---------4--------4--------6-----6----6--6-----6----|
A-------------------------------------4--------------4-----------|
E-2-------2---------2--------2-----------------------------------|
               one, ---love that is shared by two,
     Verse 1   Bm7                    G            E     Esus4  E
E----------------------------------------3-----3-------0---0---0-|
B-------3------3----------3-----3------3---3---------0-----------|
G-----2------2----------2-----2------4-------4------1----2---1---|  
D---4------4-----4---4------4------------------------------------|
A-2----------------2---------------------------------------------|
E----------------------------------3-------------0---------------|
             I have found, --with you,

     Verse 2  A                       Bm11/E
E---------------------------------------2-------------2-------|
B-------2-----2---------2-----2------3------3-------3-----3---|
G-----2-----2---------2------2-----2----------2---2---------2-|  
D---2-----2-----2---2------2--------------4-------------4-----|
A-0---------------0-------------------------------------------|
E--------------------------------0--------------0-------------|
      like a rose, --under the April snow,
     Verse 2   Bm7   Bm11/E        A
E-----------------------------------------------------------------|
B--------3----3---------3-----3--------2-----2---------2--------2-|
G-----2-----2--------2-----2---------2-----2---------2--------2---|  
D---4-----4----4---4-----4-----4---2-----2-----2---2--------2-----|
A-2------------------------------0---------------0----------------|
E----------------0----------------------------------------4-------|
      I, ---was always certain love would grow,
     Verse 2     F#m                    C#m7
E-------2-----2-----------2-----2-----------------------------------|
B-----2-----2-----------2-----2------------5-----5---------5----5---|
G---2-----2-----------2-----2------------4-----4---------4----4-----|  
D----------------4-----------------4---6-----6-----6---6----6-----6-|
A------------------------------------4---------------4--------------|
E-2----------------2------------------------------------------------|
          love, ------ageless and evergreen, 
     Verse 2   Dmaj 7              Cmaj 7            Asus4     A
E-----------------------------------------3--------------5-------5-|
B-------7--------7-----7-----7---------5---------------------------|
G-----6--6--6--------6---6-----------4--------4--------7-------6---|  
D---7------7--7----7-------7---7---5--------5---5----5-------5-----|
A-5--------------5---------------3---------------------------------|
E--------------------------------------------------5-------5-------|
           seldom seen, ----by two,
     Mid 8      Dmaj 7                C#m7
E---------------------------------------------------------------|
B-------7-----7---------7----7---------5----5---------5-----5---|
G-----6-----6---------6-----6--------4----4---------4-----4-----|  
D---7-----7-----7---7-----7----7---6-----6----6---6-----6-----6-|
A-5---------------5--------------4--------------4---------------|
E---------------------------------------------------------------|
    You ------and I, will make each, night a first, 

     Mid 8 Dmaj7               C#m7         Asus 4     A
E--------------------------------------------------------------5-|
B-------7-----7--------7-----7---------5-----5---------5---------|
G-----6-----6--------6-----6---------4-----4---------7-------6---|  
D---7-----7-----7--7-----7-----7---6-----6-----6---5-------5-----|
A-5---------------5--------------4-------------------------------|
E------------------------------------------------5-------5-------|
                              everyday --------------a beginning, 
      Mid 8 Dmaj7      Ab7           C#m7            C
E-------------------------4---------------4---------------3-------|
B-------7-----7---------4---------------5---5-----------5---------|
G-----6-----6---------5-------5-------4-------4-------5-------5---|  
D---7-----7-----7---4-------4---4---6-----------6---5-------5---5-|
A-5-------------------------------4---------------3---------------|
E-----------------4-----------------------------------------------|
        spirits rise,--- their dance  is     unrehearsed, 
      Mid 8  B7sus 2     B7              Bm7             Bm11/E  
E-------0------0-------------2----------------2---------------2------|
B-----2---2------2---------0-------0--------3---3-----------3--------|
G---2-------2-----------2--------2--------2-------2-------2--------2-|  
D---------------------1--------1-------4------------4---4-------4----|
A-2----------------2-----------------2-------------------------------|
E-----------------------------------------------------0--------------|
   they warm and excite us,   'cause we----------- brightest 
      Mid 8    Amaj 7                B/Am7
E---------0-------------0---------------2---------------2-------|
B-------2--2----------2---2-----------3---3-----------3---3-----|
G-----1------1------1-------4-------4-------4-------4-------4---|  
D---2----------2--2-----------2---4-----------4---4-----------4-|
A-0-------------0---------------0---------------0---------------|
E---------------------------------------------------------------|
  love, --two lights      that shine -------as one,   
 Verse 3 Bm7          Bm11/E            A
E---------2-------------2---------------0------------------------|
B-------3---3---------3---3-----------2---2-----------2--------2-|
G-----2-------2------2------2-------2-------2-------2--------2---|  
D---4-----------4---4---------4---2-----------2---2--------2-----|
A-2-----------------------------0---------------0----------------|
E-----------------0--------------------------------------4-------|
        morning glory ---------------and the midnight sun, 

     Verse 3   F#m                    C#m7
E-------2-----2----------2-----2-----------------------------------|
B-----2-----2----------2-----2-----------5-----5---------5-----5---|
G---2-----2----------2-----2-----------4-----4---------4-----4-----|  
D---------------4----------------4---6-----6-----6---6-----6-----6-|
A----------------------------------4---------------4---------------|
E-2---------------2------------------------------------------------|
     time, -----we've-------- -to sail -----------above, 
  Verse 3 A9sus 4                       Dmaj 7
E-------3-------3-------3-------3--------5-----------------------|
B-----3---3---3-------3---3---3--------7---7-----------7-------6-|
G---4-------4-------4-------4--------6-------6-------6-------5---|  
D-----------------------------------7----------7---7-------7-----|
A-0---------------0---------------5--------------5-------5-------|
E----------------------------------------------------------------|
        time, -won't change the meaning of, -----------------one  
 Verse 3   A                          B/A7
E---------0---------------0---------------2---------------2-------|
B-------2---2-----------2---2-----------4-----4---------4-----4---|
G-----2-------2-------2-------2-------4-----4---4-----4-----4---4-|  
D---2-----------2---2-----------2---4---------------4-------------|
A-0---------------0---------------0---------------0---------------|
E-----------------------------------------------------------------|
   love, -------ageless    and   ever,    
(Ending)  A#/A7                         A              A#/A7
E--------1---------------1---------------0---------------1-------|
B------3-----3---------3-----3---------2-----2---------3-----3---|
G----3-----3---3-----3-----3---3-----2-----2--2------3-----3---3-|  
D---3--------------3---------------2---------------3-------------|
A-0--------------0---------------0---------------0---------------|
E----------------------------------------------------------------|
   ever, ----------------------gree--------------------------
     (Ending) B/A7       Am7           B/A7           A#/A7
E---------2---------------3---------------2---------------1-------|
B-------4-----4---------5-----5---------4-----4---------3-----3---|
G-----4-----4---4-----5-----5---5-----4-----4--4------3-----3---3-|  
D---4---------------5---------------4---------------3-------------|
A-0---------------0---------------0---------------0---------------|
E-----------------------------------------------------------------|
    ---------------------------------------------------------n.
 Ending  A(add 9)
E------------|
B---------2--|
G-------4----|  
D-----2------|
A---0--------|
E------------|





Comments


Popular Barbra Streisand tabs & chords
Dont Rain On My Parade Chords
Evergreen Chords
Memory Chords
Papa Can You Hear Me Intro Chords
The Way We Were Chords
The Way We Were 1 Chords
Woman In Love Chords
The Way We Were Intro Tabs
Woman In Love Intro Tabs
Women In Love Intro Tabs


Song lyrics



↑ Back to top | Tablatures and chords are parodies/interpretations of the original songs. You may use it for private study, scholarship, research or language learning purposes only
© 2014 AZChords.com Contact us | Privacy policy | DMCA | Add/correct tabs | Request tabs | Top 50 tabs