>
 >
Pag Ibig

Pag Ibig Guitar Tabs

Barbie\\\'s Cradle - Pag Ibig chords, tabs, tablatures, lyrics

Guitar lessons | Add/correct | Request | Top 50 tabs Artists:  A B C D E F G H I J K L M N O P Q R S T U V W X Y Z 0-9

Pag Ibig Guitar Tabs – Barbie\\\'s Cradle

CD, Sheet music, Poster

Do you like Pag Ibig? Share with your friends now
Tabs


* just wanna share this tab to you guys. 
i'm not really sure if this tab i made is 100% accurate..
here's my email add if u have any comments or suggestions..



Standard Tuning


INTRO:

e|------0-----------3h4-----0--------------6--------------------11-------------
b|------3----------------3------------------------------------------------9-7--
g|-------------------------------------------8---------------------------------
d|-------------2---------------------------------------------------------------
a|---2--------------------------------------------------7----------------------
e|---------------------------------7-------------------------------------------

 ---------7--------------------4---------------------------|e
 ---------7--------------------4---------------------------|b
 ----------------------------------------------------------|g
 ----------------------------------------------------------|d
 ---5---------------------4--------------------------------|a
 ----------------------------------------------2-----------|e


VERSE:

e|-------5---------2---------0--------0-----|e
b|------------------------------------------|b
g|--6/7------2/4--------1/2------1/2--------|g
d|------------------------------------------|d
a|------------------------------------------|a
e|------------------------------------------|e

(just listen to the song for the proper timing)

 A       D              E          D
 Simple lang ginagawang komplikado 
A         D      E           D
 Di masakyan ng simpleng tao 
A         D              E        D
 Wala na bang natitirang inosente 
A         D              E  
 Lahat lahat tinamaan na ng kuryente 



Chords used:

           D                 E
e|---------5---5-------------7---7--------------|e
b|---------7-----7-----------9-----9------------|b
g|---------7-----------------9------------------|g
d|-----(7)-7-------------(7)-9------------------|d
a|---------5-----------------7------------------|a
e|----------------------------------------------|e


CHORUS:

D           E          D  
  Sumisigaw   sumisigaw  baka sakaling 
      E       D             E         D
  May  nakikinig naghihintay naghihintay
         E (break)
 Sa iyong pag-ibig

2nd VERSE:

pag nadapa di kailangang mahiya
huwag mayabang
humingi ng tulong
di natin kayang mag-isa 


(repeat chorus)





Comments


Popular Barbie\\\'s Cradle tabs & chords
Dear Paul 1 Chords
Limang Dipang Tao Chords
Pangarap Chords
Someday Chords
Tabing Ilog 3 Chords
Torete 1 Chords
All I Need Tabs
Tabing Ilog Tabs
Limang Dipang Tao Ukulele
Pangarap Ukulele


Song lyrics



↑ Back to top | Tablatures and chords are parodies/interpretations of the original songs. You may use it for private study, scholarship, research or language learning purposes only
© 2014 AZChords.com Contact us | Privacy policy | DMCA | Add/correct tabs | Request tabs | Top 50 tabs