>
 >
High

High Guitar Tabs

Barbie Almalbis - High chords, tabs, tablatures, lyrics

Guitar lessons | Add/correct | Request | Top 50 tabs Artists:  A B C D E F G H I J K L M N O P Q R S T U V W X Y Z 0-9

High Guitar Tabs – Barbie Almalbis

CD, Sheet music, Poster

Do you like High? Share with your friends now
ChordsChords v2TabsUkulele
HIGH FT. BARBIE ALMALBIS


CHORDS: D-A-Bm-G

Position of D in plucking

e|--5--|
B|--3--|
G|--2--|
D|--0--|
A|-----|
E|-----|

Position of A in plucking

e|--2--|
B|--4--|
G|--2--|
D|--2--|
A|--0--|
E|-----|

Position of Bm in plucking

e|--2--|
B|--3--|
G|--4--|
D|--4--|
A|--2--|
E|-----|

Position of G in plucking

e|--3--|
B|--3--|
G|--0--|
D|--0--|
A|--2--|
E|--3--|

INTRO:

          D                     A                    Bm             G
e|--2h5-----2---------|---------2-----2--|----------2--------|--------2-0--|
B|------3--------3----|-------5-----5----|------2h3-----3----|------3------|
G|--------2----2---2--|-----------2------|------------4---4--|----0--------|
D|--0-----------------|----2-------------|----4--------------|-------------|
A|--------------------|--0---------------|--2----------------|-------------|
E|--------------------|------------------|-------------------|--3----------|

Then

Verse 1
          D                  A                 Bm                     G
e|--------2--------|--------2-----2--|----------2--------|-------------------2--|
B|--3---------3----|------5-----5----|------2h3-----3----|-------------3---3----|
G|----2-----2---2--|----------2------|------------4---4--|-----------0----------|
D|--0---0----------|----2------------|----4--------------|---------0-----0------|
A|-----------------|--0--------------|--2----------------|----------------------|
E|-----------------|-----------------|-------------------|----------------------|
          So will it ever be          I tried so hard to find sweet serenity

          D                 A               Bm                            G
e|--------5-----5--|--------2------|-----------2--------|-----------------------10-----|
B|------3-----3----|------5-----5--|-----3---------3----|-----------3--------10----10--|
G|----2-----2------|----------2----|-------4-----4---4--|-------------0---12-----------|
D|--0--------------|----2----------|---------4----------|------------------------------|
A|-----------------|--0------------|-----2--------------|------------------------------|
E|-----------------|---------------|--------------------|---------3--------------------|
            Are you still afraid   Just close your eyes and dream The feeling fade away


Chorus: D-A-Bm-G-A

D            A             Bm
  Time wont flow everyone knows
           G    A
When the pain fades away
D              A                Bm
  Dreams wont die tears in our eyes
              G          A          D
Youve got to hold your head up high
  A             Bm 
Yeah...yeah...yeah...
  G         A          D
Hold your head up high

ADLIB AFTER THE CHORUS:



DO ALSO THE PLUCKING:

VERSE 2

D                  A
  Its taken some time
Bm                                 G                   A
  And ive given off the will to change your state of mind
D                  A
  Im trying to understand
Bm                            G            A
  Its not so hard to see that I am just a man


Chorus: D-A-Bm-G-A

D            A             Bm
  Time wont flow everyone knows
           G    A
When the pain fades away
D              A                Bm
  Dreams wont die tears in our eyes
              G          A          D
Youve got to hold your head up high
  A             Bm 
Yeah...yeah...yeah...
  G         A          D
Hold your head up high

ADLIB AFTER THE CHORUS:

e|-----------12----10-10-9-10-9-----|-----------12----10-10-9-10-9-----|
B|--10-10-10----10--------------10--|--10-10-10----10--------------10--|
G|----------------------------------|----------------------------------|
D|----------------------------------|----------------------------------|
A|----------------------------------|----------------------------------|
E|----------------------------------|----------------------------------|

e|------------10-10-9-10-10--|--9-10-9-------------------------10-9--|
B|--12--12-12----------------|---------10-----------10~--12-12-------|
G|---------------------------|------------11--12-12------------------|
D|---------------------------|---------------------------------------|
A|---------------------------|---------------------------------------|
E|---------------------------|---------------------------------------|


ADLIB: 2min:21sec


e|---------------------------------------------------|----------------------|
B|--7h8----------7h8-8/10-8-7-------7h8-8/10-8-7-----|------7h8-8~-8-10-10--|
G|------7~---7h9--------------7~--7--------------7~--|--7-9-----------------|
D|---------------------------------------------------|----------------------|
A|---------------------------------------------------|----------------------|
E|---------------------------------------------------|----------------------|

e|------------------------------------------------------------------------------|
B|--10/12-10----------------------8p7---8p7---8p7---8p7---8p7--7-7---8-8-8-10---|
G|------------12-11-12-11-12-7~-7-----9-----9-----9-----9----------9------------|
D|------------------------------------------------------------------------------|
A|------------------------------------------------------------------------------|
E|------------------------------------------------------------------------------|

e|---------------------------------------------2--|
B|-----------------8-7h8-8-10-10-10/12-10-8-8--3--|
G|--7p6h7p6------------------------------------2--|
D|----------4h5/7------------------------------0--|
A|------------------------------------------------|
E|------------------------------------------------|


REPEAT VERSE 1
 
REPEAT CHORUS

e|-----------12----10-10-9-10-9-----|-----------12----10-10-9-10-9-----|
B|--10-10-10----10--------------10--|--10-10-10----10--------------10--|
G|----------------------------------|----------------------------------|
D|----------------------------------|----------------------------------|
A|----------------------------------|----------------------------------|
E|----------------------------------|----------------------------------|

e|------------10-10-9-10-10--|--9-10-9-------------------------10-9--|
B|--12--12-12----------------|---------10-----------10~--12-12-------|
G|---------------------------|------------11--12-12------------------|
D|---------------------------|---------------------------------------|
A|---------------------------|---------------------------------------|
E|---------------------------|---------------------------------------|

| /  slide up
| \  slide down
| h  hammer-on
| p  pull-off
| ~  vibrato
| +  harmonic
| x  Mute note
===============================================================================





Comments


Popular Barbie Almalbis tabs & chords
Just A Smile Bass Tabs
Dahilan Chords
Overdrive Chords
When I Met You 1 Chords
Just A Smile 1 Tabs
Sorry Song Tabs
High Ukulele
Overdrive Ukulele
Sorry Song Ukulele
Summer Day Ukulele


Song lyrics



↑ Back to top | Tablatures and chords are parodies/interpretations of the original songs. You may use it for private study, scholarship, research or language learning purposes only
© 2014 AZChords.com Contact us | Privacy policy | DMCA | Add/correct tabs | Request tabs | Top 50 tabs