» » »

Dahilan Tabs (ver.1)

Artists:  A B C D E F G H I J K L M N O P Q R S T U V W X Y Z # 

Dahilan Tabs (ver.1)

Barbie Almalbis
Rating:
0/5 (0 votes)

Hard to play? Try these video lessons and learn fast.
                Dahilan by Barbie Almalbis


intro/verse 1: ethnic instrument made of bamboo ung instrument na ginamit sa intro/verse 1
nakalimutan ko lang ung tawag, pro hinihipan un tapos tinatap, kung alam nyo ung tawag 
send nio lang...

|-----------------------|
|-----------------------|
|-----------------------|
|--6-----8-------11-----|
|--6-----8-------11-----|
|--4-----6-------9------|

Chorus:
|-------------------------------|
|-------------------------------|
|--6-----8------10----8---------|
|--6-----8------10----8---------|
|--4-----6------8-----6---------|
|--x-----x------x-----x---------|

Ngunit lahat nang ito ay walang kahulugan
kung di rin lang ikaw ang natagpuan
ang pag-ibig ko ay walang saysay
kung 'di rin lang ikaw ang DAHILAN...

play nio toh before verse 2

repeat 2x
|--------------------------------|
|--------------------------------|
|--------------------------------|
|--10--8----------10--8----------|
|---------10--11----------8---6--|
|--------------------------------|

verse 2:
|-----------|
|-----------|
|---6----x--| repeat 4x
|---6----6--|
|---4----6--|
|---x----4--|


naaalala ko ang dati, magkasama hanggang hating gabi
di bale na kung ano ang sabihin nila, habang buhay magtatabi.


Chorus: lead part

|--8--6--------8--6------------|ulit ulitin nyo lang
|--9--9--8--9--9--9--6--4------|
|------------------------------|
|------------------------------|
|------------------------------|
|------------------------------|

Ngunit lahat nang ito ay walang kahulugan
kung di rin lang ikaw ang natagpuan
ang pag-ibig ko ay walang saysay
kung 'di rin lang ikaw ang DAHILAN...

Bridge:

|-------------|
|-------------|
|---10--8-----|2X
|---10--8-----|
|---8---6-----|
|-------------|

|---------------|
|---------------|
|---6--8--10----|
|---6--8--10----|
|---4--6--8-----|
|---------------|

binabasa kita, malapit nang makita, isinusuri ko ang mga letra...

instrumental:
|-------------------------------|
|-------------------------------|
|--6-----8------10----8---------|
|--6-----8------10----8---------|
|--4-----6------8-----6---------|
|--x-----x------x-----x---------|ung lead part ska ko na ipapasa basta e2 ung chords nia

chorus:

...kung di rin lang ikaw ang dahilan ohohohoho
            
Hard to play? Try these video lessons and learn fast. | Correct




comments powered by Disqus
↑ Back to top | Tablatures and chords are parodies/interpretations of the original songs. You may use it for private study, scholarship, research or language learning purposes only