» » »

Necromantical Ritual Tabs (ver.1)

Artists:  A B C D E F G H I J K L M N O P Q R S T U V W X Y Z # 

Necromantical Ritual Tabs (ver.1)

Barathrum
Rating:
0/5 (0 votes)

Hard to play? Try these video lessons and learn fast.
                Barathrum - Necromantical Ritual

Hope you'll like it. Anything related to this tab, mail me.
Play it as heavy as possible.

Legend:
 * = palm mute

Tuning: Standard E

Riff 1 (Intro and Main Riff):
e|-----------------|---------------|
b|-----------------|---------------|
g|-----------------|---------------|
d|---4-5-4-2-4-5-4-|---4-5-4-2-----|
a|-2-2-3-2-0-2-3-2-|-2-2-3-2-0-5-4-|
e|-0---------------|-0---------3-2-|
   * * * * * * * *   * * * * * * 

Riff 2:

e|---------------------------------------------|
b|---------------------------------------------|
g|---------------------------------------------|
d|----2---5-4-2-4-2-----------2-4-5-2-4--------|
a|-2--2---3-2-0-2-0--5--2--2--0-2-3-0-2---5----|
e|-0--0--------------3--0--0--------------3----|

e|---------------------------------------------|
b|---------------------------------------------|
g|---------------------------------------------|
d|----2---5-4-2-4-2--------2--2-4-5-2-4--------|
a|-2-----------------5--2-----------------5----|
e|-0--------------------0----------------------|

Riff 3 (Bridge):
e|---|---|---|---|
b|---|---|---|---|
g|---|---|-5-|-4-|
d|-2-|-0-|-5-|-4-|
a|-2-|-0-|-3-|-2-|
e|-0-|---|---|---|

Riff 4 (Outro):
                  x2                x2                x2                x2
e|-----------------|-----------------|-----------------|-----------------|
b|-----------------|-----------------|-----------------|-----------------|
g|-----------------|-----------------|-----------------|-----------------|
d|-2-2-2-2-2-2-2-2-|-0-0-0-0-0-0-0-0-|-5-5-5-5-5-5-5-5-|-4-4-4-4-4-4-4-4-|
a|-2-2-2-2-2-2-2-2-|-0-0-0-0-0-0-0-0-|-3-3-3-3-3-3-3-3-|-2-2-2-2-2-2-2-2-|
e|-0-0-0-0-0-0-0-0-|-----------------|-----------------|-----------------|
   * * * * * * * *   * * * * * * * *   * * * * * * * *   * * * * * * * * *
            
Hard to play? Try these video lessons and learn fast. | Correct




comments powered by Disqus
↑ Back to top | Tablatures and chords are parodies/interpretations of the original songs. You may use it for private study, scholarship, research or language learning purposes only