» » »

Barathrum, Last Day In Heaven Bass tabs (ver.1)

Artists:  A B C D E F G H I J K L M N O P Q R S T U V W X Y Z # 

Last Day In Heaven Bass tabs (ver.1)

Barathrum Tabs
Rating:
0/5 (0 votes)
Last Day In Heaven lessons Tabs too difficult? Try these video lessons and learn fast
                Easy song, listen for timing.

Verse Riff

G|-----------------------------|------------------------------|
D|-----------------------------|------------------------------|
A|----7-----7-----7-----7-----5|----7-----7-----7-----7-----3-|
E|0-0---0-0---0-0---0-0---0-0--|0-0---0-0---0-0---0-0---0-0---|


G|-----------------------------|-------------------------|
D|-----------------------------|-------------------------|
A|----7-----7-----7-----7-----5|----7-----7-----------5--|
E|0-0---0-0---0-0---0-0---0-0--|0-0---0-0---0-0-5-7-8----|

Chorus Riff

G|-----------------------|------------------------------|
D|-----------------------|-------------7----------------|
A|----7--9-10-----7--9-10|-----7--9-10----10-9-10-9-----|
E|0-0---------0-0--------|-0-0----------------------10--|

Outro Riff

G|---------------------------|--------------------|
D|---------------------------|--------------------|
A|----------9--10-9----------|---------------5-7--|
E|12--10-12---------12-10-8--|5-5-7-7-8-8-10------|
            
Submit corrections

comments powered by Disqus
↑ Back to top | Barathrum Bass for Last Day In Heaven. Lyrics for acoustic guitar and electric guitar. Tablatures and chords are parodies/interpretations of the original songs. You may use it for private study, scholarship, research or language learning purposes only