» » »

Fatal Bite Tabs (ver.1)

Artists:  A B C D E F G H I J K L M N O P Q R S T U V W X Y Z # 

Fatal Bite Tabs (ver.1)

Barathrum
Rating:
0/5 (0 votes)

Tabs too difficult? Try these video lessons and learn fast.
                Barathrum - Fatal Bite


E----------------------------------------------------------|
B----------------------------------------------------------|
G----------------------------------------------------------|
D--------------------------------------------------------5-|
A-----2------3------2--3--2--------2-------3------2--2-3---|
E-0-0----0-0----0-0---------3--0-0-----0-0----0-0----------|
PM. .    . .    . .            . .     . .    . .

E---------------------------------|-----------------|
B---------------------------------|-----------------|
G---------------------------------|-----------------|
D---------------------------------|-----------------|
A-----2-----3-----5-----3-----2-3-|-5-0-0-2-2-------|
E-0-0---0-0---0-0---0-0---0-0-----|-----------3-3---|

E-------------------------------------------|
B-------------------------------------------|
G-------------------------------------------|
D-9---7-7-7/9-9-9--12-117--5--5/7--7/9-9-9--|
A-7---5-5-5/7-7-7--10-9-5--3--3/5--5/7-7-7--|
E-------------------------------------------|
The rest is easy to figure out from that.
It's pretty much the same.
            
Tabs too difficult? Try these video lessons and learn fast.




comments powered by Disqus
↑ Back to top | Tablatures and chords are parodies/interpretations of the original songs. You may use it for private study, scholarship, research or language learning purposes only