>
 >
 >
Verdamp Lang Her 1

Verdamp Lang Her 1 Guitar Tabs

Bap - Verdamp Lang Her 1 chords, tabs, tablatures, lyrics

Guitar lessons | Add/correct | Request | Top 50 tabs Artists:  A B C D E F G H I J K L M N O P Q R S T U V W X Y Z 0-9

Verdamp Lang Her 1 Guitar Tabs – Bap

CD, Sheet music, Poster

Do you like Verdamp Lang Her 1? Share with your friends now
ChordsTabsTabs v2Ukulele
Verse: Stress on  3,5 and 7
  e                  D                 C       e          D
e------------------|-----------------|------------------|-----------------|
H------------------|-----------------|------------------|-----------------|
G------------------|-----------------|------------------|-----------------|
D-----9---10---9---|-----7---9---7---|-----5---10---9---|-----7---9---7---|
A-7-7---7----7---7-|-5-5---5---5---5-|-3-3---3----7---7-|-5-5---5---5---5-|
E------------------|-----------------|------------------|-----------------|

Bridge:
  C             A           D             B
e-------------|-----------|-------------|-----------|
H-------------|-----------|-------------|-----------|
G-5-5-x-5-5-4-|-------4-5-|-7-7-x-7-7-5-|-------5-7-|
D-5-5-x-5-5-4-|-7-7-x-4-5-|-7-7-x-7-7-5-|-9-9-x-5-7-|
A-3-3-x-3-3-2-|-7-7-x-----|-5-5-x-5-5-3-|-9-9-x-----|
E-------------|-5-5-x-----|-------------|-7-7-x-----|

  C             D             e 
e-------------|-------------|-----------------|
H-------------|-------------|-----------------|
G-5-5-x-x-5-x-|-7-7-x-x-7-x-|-9-9-x-9-7-5-5-7-|
D-5-5-x-x-5-x-|-7-7-x-x-7-x-|-9-9-x-9-7-5-5-7-|
A-3-3-x-x-3-x-|-5-5-x-x-5-x-|-7-7-x-7-5-3-3-5-|
E-------------|-------------|-----------------|

Chorus:
  G           D
e-----------|-----------|-----------|-----------|
H-----------|---7-7-6---|-----------|---7-7-7---|
G-----------|-7-6-6-6-x-|-5-x-x-5-x-|-7-6-6-6-x-|
D-5-x-x-5-x-|-7-------x-|-5-x-x-5-x-|-7-------x-|
A-5-x-x-5-x-|-5-------x-|-3-x-x-3-x-|-5-------x-|
E-3-x-x-3-x-|-----------|-----------|-----------|





Comments


Popular Bap tabs & chords
Fur Immer Jung Chords
Helfe Kann Dir Keiner Chords
Jraaduss Chords
Kristallnaach Chords
Verdamp Lang Her Chords
Warrior Chords
Do Kanns Zaubere 1 Tabs
Schloof Jung, Schloof Joot Tabs
Allerletzte Chance Ukulele
Verdamp Lang Her Ukulele


Song lyrics



↑ Back to top | Tablatures and chords are parodies/interpretations of the original songs. You may use it for private study, scholarship, research or language learning purposes only
© 2014 AZChords.com Contact us | Privacy policy | DMCA | Add/correct tabs | Request tabs | Top 50 tabs