>
 >
Manic Monday

Manic Monday Bass Tabs

Bangles - Manic Monday chords, tabs, tablatures, lyrics

Guitar lessons | Add/correct | Request | Top 50 tabs Artists:  A B C D E F G H I J K L M N O P Q R S T U V W X Y Z 0-9

Manic Monday Bass Tabs – Bangles

CD, Sheet music, Poster

Do you like Manic Monday? Share with your friends now
Bass TabsChordsChords v2TabsUkulele
-------------------------------------------------------------------------------
-------------------------------------------------------------------------------

Tuning: E A D G

Gtr I (E A D G) - 'Bass'

  Q=116
 4/4
  Gtr I
  Q.   E H      H    H      Q.   E H      Q  Q  Q  Q
|-------------|-----------|-------------|----------2---|
|-0----0-0----|-5---------|-------------|-5--4--2------|
|-------------|------7----|-5----5-5----|--------------|
|-------------|-----------|-------------|--------------|


  Q.   E H      H    H      Q.   E H      Q  Q  Q  Q
|-------------|-0---------|-------------|-0--------2--|
|-0----0-0----|------2----|-0----0-0----|----4--2-----|
|-------------|-----------|-------------|-------------|
|-------------|-----------|-------------|-------------|


  W          Q.   E H      Q.   E H      Q.   E H
|----------|-------------|-0----0-0----|-------------|
|-0--------|-0----0-0----|-------------|-0----0-0----|
|----------|-------------|-------------|-------------|
|----------|-------------|-------------|-------------|


  H    H      Q.   E H      Q.   E H      Q.   E H
|-0---------|-------------|-0----0-0----|-------------|
|------2----|-0----0-0----|-------------|-0----0-0----|
|-----------|-------------|-------------|-------------|
|-----------|-------------|-------------|-------------|


  Q  Q  H      Q.   E H      Q.   E H      Q.   E H
|-0----------|-------------|-0----0-0----|-------------|
|----4--2----|-0----0-0----|-------------|-0----0-0----|
|------------|-------------|-------------|-------------|
|------------|-------------|-------------|-------------|


  H    H      Q.   E H      Q.   E H      Q.   E Q.   E
|-0---------|-2----2-2----|-2----2-2----|-------------2-|
|------2----|-------------|-------------|-0----0-0------|
|-----------|-------------|-------------|---------------|
|-----------|-------------|-------------|---------------|


  W          Q.   E Q.   E   Q  Q  H      Q.   E Q.   E
|-2--------|---------------|-0----------|---------------|
|----------|-0----0-0----0-|----4--2----|-0----0-0----0-|
|----------|---------------|------------|---------------|
|----------|---------------|------------|---------------|


  Q  Q  H      Q.   E Q.   E   Q  Q  H      Q.   E Q.   E
|-0----------|---------------|-0----------|---------------|
|----4--2----|-0----0-0----0-|----4--2----|-0----0-0------|
|------------|---------------|------------|---------------|
|------------|---------------|------------|---------------|


                                         Q=116
  H    Q  E E   W          Q.   E H      Q.   E H
|-0----2----2-|----------|-------------|-0----0-0----|
|-------------|-0--------|-0----0-0----|-------------|
|-------------|----------|-------------|-------------|
|-------------|----------|-------------|-------------|


  Q=116         Q=116       Q=116         Q=116
  Q.   E H      H    H      Q.   E H      Q.   E H
|-------------|-0---------|-------------|-0----0-0----|
|-0----0-0----|------2----|-0----0-0----|-------------|
|-------------|-----------|-------------|-------------|
|-------------|-----------|-------------|-------------|


  Q=116         Q=116        Q=116         Q=116
  Q.   E H      Q  Q  H      Q.   E H      Q.   E H
|-------------|-0----------|-------------|-0----0-0----|
|-0----0-0----|----4--2----|-0----0-0----|-------------|
|-------------|------------|-------------|-------------|
|-------------|------------|-------------|-------------|


  Q=116         Q=116       Q=116         Q=116
  Q.   E H      H    H      Q.   E H      Q.   E H
|-------------|-0---------|-2----2-2----|-2----2-2----|
|-0----0-0----|------2----|-------------|-------------|
|-------------|-----------|-------------|-------------|
|-------------|-----------|-------------|-------------|


  Q=116           Q=116      Q=116           Q=116
  Q.   E Q.   E   W          Q.   E Q.   E   Q  Q  H
|-------------2-|-2--------|---------------|-0----------|
|-0----0-0------|----------|-0----0-0----0-|----4--2----|
|---------------|----------|---------------|------------|
|-------------5-|----------|---------------|------------|


  Q=116           Q=116        Q=116           Q=116
  Q.   E Q.   E   Q  Q  H      Q.   E Q.   E   Q  Q  H
|---------------|-0----------|---------------|-0----------|
|-0----0-0----0-|----4--2----|-0----0-0----0-|----4--2----|
|---------------|------------|---------------|------------|
|---------------|------------|---------------|------------|


  Q=116           Q=116
  Q.   E Q.   E   H    Q  E E   W          Q.   E +Q.   E
|---------------|-0----2----2-|----------|-4----4-(4)-----|
|-0----0-0------|-------------|-0--------|----------------|
|---------------|-------------|----------|----------------|
|---------------|-------------|----------|----------------|


  Q.   E Q  Q    Q.   E H      Q.   E H      Q.   E H
|-4----4-4--4--|-------------|-------------|-0----0-0----|
|--------------|-2----2-2----|-2----2-2----|-------------|
|--------------|-------------|-------------|-------------|
|--------------|-------------|-------------|-------------|


  Q.   E H      Q.   E H      Q  Q  Q  Q     Q.    E  H
|-2----2-2----|-4----4-4----|-4--6--7-----|----------------|
|-------------|-------------|----------9--|----------------|
|-------------|-------------|-------------|-10----10-10----|
|-------------|-------------|-------------|----------------|


   Q.    E  Q   Q     Q  E  E Q   Q    E  E  E E  Q   Q    W
|------------------|-----------------|---------9-12--12--|------|
|------------------|-----------------|------11-----------|------|
|------------------|-12----12----12--|---12--------------|------|
|-12----12-12--12--|-----------------|-------------------|------|


                         Q=116               Q=116
  W           W           Q.    E  Q.    E    Q  Q  H
|----------|-----------|-------------------|-------------|
|----------|-----------|-------------------|-------------|
|----------|-12--------|-------------------|-10--9--7----|
|----------|-----------|-10----10-10----10-|-------------|


  Q=116           Q=116        Q=116         Q=116
  Q.   E Q.   E   Q  Q  H      Q.   E H      H    H
|---------------|------------|-------------|-0----2----|
|---------------|-5--4--2----|-0----0-0----|-----------|
|-5----5-5----5-|------------|-------------|-----------|
|---------------|------------|-------------|-----------|


  Q  Q  +H       +H.      Q
|--------------|-------------*|
|-0--0--(0)----|-(0)---------*|
|--------------|-------------*|
|--------------|-------------*|


Duration Legend
---------------
W - whole; H - half; Q - quarter; E - 8th; S - 16th; T - 32nd; X - 64th; a - acciaccatura
+ - note tied to previous; . - note dotted; .. - note double dotted
Uncapitalized letters represent notes that are staccato (1/2 duration)
Irregular groupings are notated above the duration line
Duration letters will always appear directly above the note/fret number it represents the
duration for.  Duration letters with no fret number below them represent rests.  Multi-
bar rests are notated in the form Wxn, where n is the number of bars to rest for.  Low
melody durations appear below the staff

Tablature Legend
----------------
 h   - hammer-on
 p   - pull-off
 b   - bend
 pb  - pre-bend
 r   - bend release (if no number after the r, then release immediately)
 /\  - slide into or out of (from/to "nowhere")
 s   - legato slide
 S   - shift slide
  - natural harmonic
[n]  - artificial harmonic
n(n) - tapped harmonic
 ~   - vibrato
 tr  - trill
 T   - tap
 TP  - trem. picking
 PM  - palm muting
\n/  - tremolo bar dip; n = amount to dip
 \n  - tremolo bar down
 n/  - tremolo bar up
/n\  - tremolo bar inverted dip
 =   - hold bend; also acts as connecting device for hammers/pulls
 <>  - volume swell (louder/softer)
 x   - on rhythm slash represents muted slash
 o   - on rhythm slash represents single note slash

Misc Legend
-----------
 |  - bar
||  - double bar
||o - repeat start
o|| - repeat end
*|  - double bar (ending)
 :  - bar (freetime)
 $  - Segno
 &  - Coda
Tempo markers -  = BPM(8/16=s8/s16), where s8 = swing 8ths, s16 = swing 16ths





Comments


Popular Bangles tabs & chords
Eternal Flame Chords
Going Down To Liverpool Chords
Manic Monday 1 Chords
Restless Chords
All About You Tabs
Eternal Flame 1 Tabs
Hazy Shade Of Winter Tabs
In Your Room Tabs
Walk Like An Egyptian 1 Tabs
Hazy Shade Of Winter Ukulele


Song lyrics



↑ Back to top | Tablatures and chords are parodies/interpretations of the original songs. You may use it for private study, scholarship, research or language learning purposes only
© 2014 AZChords.com Contact us | Privacy policy | DMCA | Add/correct tabs | Request tabs | Top 50 tabs