» » »

Bangles, Eternal Flame Bass tabs (ver.1)

Artists:  A B C D E F G H I J K L M N O P Q R S T U V W X Y Z # 

Eternal Flame Bass tabs (ver.1)

Bangles Tabs
 Rating:
4/5 (4 votes)
Eternal Flame lessons Tabs too difficult? Try these video lessons and learn fast
                ++++++++++++++++++++++++++++++
| The Bangles- Eternal Flame |
++++++++++++++++++++++++++++++


"Do you feel my heart beating..."

Tuning: EADG


Intro
1.
G|----------------------|
D|--------------------0-|
A|------------------2---|
E|----------------------|

Verse
"Close your eyes, give me your hand darling..."
2.
G|------------------------------------------------------------|
D|-5~----2~-------------------2-5~---5-2~-------------------0-|
A|------------2-3~---3-5~---5---------------2-3~---3-5~---2---|
E|------------------------------------------------------------|

"Do you feel the same...?"
3.
G|-----4/9~-4---------------------------------------------2~---4p2h4p2-0~-------2~----2-|
D|-2~---------4------2~---9-9-7~/-------------------------------------------------------|
A|--------------2~---------------0----5~---4-2~---2-0~--------------------0~------------|
E|--------------------------------------------------------------------------------------|

"I believe its meant to be darling..."
4.
G|------------------------------------------------------------|
D|-5~----2~-------------------2-5~---5-2~-------------------0-|
A|------------2-3~---3-5~---5---------------2-3~---3-5~---2---|
E|------------------------------------------------------------|

"Do you feel the same...?"
5.
G|-----4/9~-4---------------------------------------------2~----2~----------2~----2-4-|
D|-2~---------4------2~---9-9-7~/-----------------------------------------------------|
A|--------------2~---------------0----5~---4-2~---2-0~----------------0~--------------|
E|------------------------------------------------------------------------------------|

Chorus
"Say my name..."
6.
G|-7~----7-7~----7-7~----7-7~--------------------------------|
D|-------------------------------3~----5~--------------------|
A|-------------------------------------------3~--2~--0~------|
E|-------------------------------------------------------3~--|

"I dont wanna lose this feeling..."
7.
G|-------------------------------------------|
D|-------------------------------------------|
A|-5~---4-2~---2-3~---3-3~---3-5~---5-5~---5-|
E|-------------------------------------------|

Outro
"Ohh..."
8.
G|-----4/9~-4---------------------------------------------2~---4p2h4p2-0~-------2~---2-4-|
D|-2~---------4------2~---9-9-7~/--------------------------------------------------------|
A|--------------2~---------------0----5~---4-2~---2-0~--------------------0~-------------|
E|---------------------------------------------------------------------------------------|

Chorus
"Say my name..."
9.
G|-7~----7-7~----7-7~----7-7~--------------------------------|
D|-------------------------------3~----5~--------------------|
A|-------------------------------------------3~--2~--0~------|
E|-------------------------------------------------------3~--|

"I dont wanna lose this feeling..."
10.
G|-------------------------------------------|
D|-------------------------------------------|
A|-5~---4-2~---2-3~---3-3~---3-5~---5-5~---5-|
E|-------------------------------------------|

Verse
"Close your eyes, give me your hand darling..."
11.
G|------------------------------------------------------------|
D|-5~----2~-------------------2-5~---5-2~-------------------0-|
A|------------2-3~---3-5~---5---------------2-3~---3-5~---2---|
E|------------------------------------------------------------|

"Do you understand...?"
12.
G|-----4/9~-4---------------------------------------------2~---4p2h4p2-0~-------2~----2-|
D|-2~---------4------2~---9-9-7~/-------------------------------------------------------|
A|--------------2~---------------0----5~---4-2~---2-0~--------------------0~------------|
E|--------------------------------------------------------------------------------------|

"Close your eyes, give me your hand darling..."
13.
G|------------------------------------------------------------|
D|-5~----2~-------------------2-5~---5-2~-------------------0-|
A|------------2-3~---3-5~---5---------------2-3~---3-5~---2---|
E|------------------------------------------------------------|

"Do you understand...?"
14.
G|-----4/9~-4---------------------------------------------2~---4p2h4p2-0~-------2~----2-|
D|-2~---------4------2~---9-9-7~/-------------------------------------------------------|
A|--------------2~---------------0----5~---4-2~---2-0~--------------------0~------------|
E|--------------------------------------------------------------------------------------|

"Close your eyes, give me your hand darling..."
15.
G|------------------------------------------------------------|
D|-5~----2~-------------------2-5~---5-2~-------------------0-|
A|------------2-3~---3-5~---5---------------2-3~---3-5~---2---|
E|------------------------------------------------------------|

"Do you understand...?"
16.
G|-----4/9~-4---------------------------------------------2~---4p2h4p2-0~-------2~----2-|
D|-2~---------4------2~---9-9-7~/-------------------------------------------------------|
A|--------------2~---------------0----5~---4-2~---2-0~--------------------0~------------|
E|--------------------------------------------------------------------------------------|

"Close your eyes, give me your hand darling..."
17.
G|------------------------------------------------------------|
D|-5~----2~-------------------2-5~---5-2~-------------------0-|
A|------------2-3~---3-5~---5---------------2-3~---3-5~---2---|
E|------------------------------------------------------------|

"Do you understand...?"
18.
G|-----4/9~-4---------------------------------------------2~---4p2h4p2-0~-------2~----2-|
D|-2~---------4------2~---9-9-7~/-------------------------------------------------------|
A|--------------2~---------------0----5~---4-2~---2-0~--------------------0~------------|
E|--------------------------------------------------------------------------------------|


Lyrics:


Close your eyes
Give me your hand, darling
Do you feel my heart beating?
Do you understand?

Do you feel the same?
Am I only dreaming?
Is this burning
An eternal flame

I believe
Its meant to be, darling
Im watching when you are sleeping
You belong with me

Say my name
Sun shines through the rain
A whole life so lonely
And then you come and ease the pain
I don't want to lose this feeling, oh.



+++++++++++++++++++++++++++++++++
| RaiLeff                       |
+++++++++++++++++++++++++++++++++
            
Submit corrections

comments powered by Disqus
↑ Back to top | Bangles Bass for Eternal Flame. Lyrics for acoustic guitar and electric guitar. Tablatures and chords are parodies/interpretations of the original songs. You may use it for private study, scholarship, research or language learning purposes only