» » »

Push Push Lady Lightning Tabs (ver.5)

Artists:  A B C D E F G H I J K L M N O P Q R S T U V W X Y Z # 

Push Push Lady Lightning Tabs (ver.5)

Bang Camaro
Rating:
0/5 (0 votes)

Hard to play? Try these video lessons and learn fast.
                PUSH PUSH (LADY LIGHTNING) by Bang Camaro
GUITAR TAB
NOTE: I didn’t tab the intro, you can find it elsewhere online.  I didn’t see the point. 
Also, I couldn’t get the PRECHORUS part.

VERSE 1
e]---------------------------------4-2-4---7-6-7---9-7-9---9/12-|
B]-4-2-4---2-0-2------------------------------------------------|
G]-----------------4-3-4----------------------------------------|
D]-------------------------6-4-6--------------------------------|
A]--------------------------------------------------------------|
E]--------------------------------------------------------------|

Guitar 1:
e]---------------------------------4-2-4---7-6-7---9-7-9---7-6-2|
B]-4-2-4---2-0-2------------------------------------------------|
G]-----------------4-3-4----------------------------------------|
D]-------------------------6-4-6--------------------------------|
A]--------------------------------------------------------------|
E]--------------------------------------------------------------|

Guitar 2:
e]--------------------------------------------------------------|
B]--------------------------------------------------------------|
G]-4-3-4---3-1-3------------------------------------------------|
D]-----------------6-4-6-----------6-4-6-----------2-1----------|
A]-------------------------2-1-2-----------2-1-2-------4---2-1--|
E]-------------------------------------------------------------2|

PRECHORUS

CHORUS					Play 4x
e]-----------------------------------|
B]-----------------------------------|
G]-----------------------------------|
D]-6-6---9-9---2-2-2-----------------|
A]-6-6---9-9---2-2-2---2-1-------1-2-|
E]-4-4---7-7---0-0-0-------4-2-4-----|

VERSE 2
e]---------------------------------7-6-7---4-2-4---9-7-9---6-4-6-|
B]---------2-0-2---4-2-4---5-4-5---------------------------------|
G]-4-3-4---------------------------------------------------------|
D]---------------------------------------------------------------|
A]---------------------------------------------------------------|
E]---------------------------------------------------------------|

Guitar 1:Repeat

Guitar 2:
e]---------------------------------------------------------------|
B]---------------------------------------------------------------|
G]---------------------------------4-3-4-----------6-4-6---3-1-3-|
D]-----------------4-2-4---6-4-6-----------6-4-6-----------------|
A]-6-4-6---7-6-7-------------------------------------------------|
E]---------------------------------------------------------------|

PRECHORUS

CHORUS 2

BASS SOLO	tabbed for guitar		     Repeat
e]-------------------------------------------|
B]-------------------------------------------|
G]-------------------------------------------|
D]-----------4-------6---6-------------------|
A]---------2---2-2-4---4-------------4-------|
E]-4-4-4-------------------4-4-4---2---2-2/4-|

GUITAR REENTRANCE				   Repeat
e]-------------------------------------------|
B]-------------------------------------------|
G]-------------------------------------------|
D]-6-9-6---9-11/12/11-9-11-9---6-9-6---4-4/6-|
A]-6-9-6---9-11/12/11-9-11-9---6-9-6---4-4/6-|
E]-4-7-4---7--9/10/9--7-9--7---4-7-4---2-2/4-|

BRIDGE										  Play 2x
e]-------------------------------|-------------------------------|
B]-------------------------------|-------------------------------|
G]-------------------------------|-------------------------------|
D]-----------------------------6-|-------------------------------|
A]---2---4-2---------2---4-2-----|---2---4-2---------2---4-2-----|
E]-4---4-----4-2-4-0---4-----4---|-4---4-----4-2-4-0---4-----4-4-|

GUITAR SOLO (No freakin’ clue)

CHORUS 3

CHORUS 4

OUTTRO						  BIG ENDING 1
e]-------------------4-4-4\---------|---------------------------|
B]----------4-4-4\------------4-4-4-|-0------just go crazy------|
G]-4-4-4\---------------------------|---------------------------|
D]----------------------------------|---------------------------|
A]----------------------------------|---------------------------|
E]----------------------------------|---------------------------|

PAUSE

BIG ENDING 2 (Again, no clue, except that the last note is G]1)

I also wrote a bass tab for this song.
            
Hard to play? Try these video lessons and learn fast. | Correct




comments powered by Disqus
↑ Back to top | Tablatures and chords are parodies/interpretations of the original songs. You may use it for private study, scholarship, research or language learning purposes only