>
 >
Push Push Lady Lightning 1

Push Push Lady Lightning 1 Guitar Tabs

Bang Camaro - Push Push Lady Lightning 1 chords, tabs, tablatures, lyrics

Guitar lessons | Add/correct | Request | Top 50 tabs Artists:  A B C D E F G H I J K L M N O P Q R S T U V W X Y Z 0-9

Push Push Lady Lightning 1 Guitar Tabs – Bang Camaro

CD, Sheet music, Poster

Do you like Push Push Lady Lightning 1? Share with your friends now
Bass TabsBass Tabs v2TabsTabs v2Tabs v3Tabs v4
Bang Camero Ė Push Push (Lady Lightning)


If anything is wrong with it hit me up or fix it yourself. I think itís pretty accurate. 
it for me. Iíll be working on some other tabs soon enough. Check Ďem out.
Peace
Basic Tuning:

Intro a:

Guitar 1
E|----------------------------------------|------------------------------|
B|----------------------------------------|------------------------------|
G|----------------------------------------|------------------------------|
D|-7\-x-x-x-x-7-7-x-x-10-x-x-13-x-x-11-12-|--x-x-7-7-x-x-10-x-x-3-x-x-2--|
A|----x-x-x-x-----x-x----x-x----x-x-------|--x-x-----x-x----x-x---x-x-2--|
E|----x-x-x-x-5-5-x-x-8--x-x-11-x-x-9--10-|--x-x-5-5-x-x-8--x-x-1-x-x-0--|

E|---------------------------------|-------------------------|
B|---------------------------------|-------------------------|
G|---------------------------------|-------------10---10-----|
D|-x-x-7-7-x-x-10-x-x-13-x-x-11-12-|-x-x-7-7-x-x-10-x-10--x--|
A|-x-x-----x-x----x-x----x-x-------|-x-x-----x-x-8--x-7---x--|
E|-x-x-5-5-x-x-8--x-x-11-x-x-9--10-|-x-x-5-5-x-x----x-----x--|

E|----------------------------------------|------------------------------|
B|----------------------------------------|------------------------------|
G|----------------------------------------|------------------------------|
D|---x-x-x-x-7-7-x-x-10-x-x-13-x-x-11-12--|--x-x-7-7-x-x-10-x-x-3-x-x-2--|
A|---x-x-x-x-----x-x----x-x----x-x--------|--x-x-----x-x----x-x---x-x-2--|
E|---x-x-x-x-5-5-x-x-8--x-x-11-x-x-9--10--|--x-x-5-5-x-x-8--x-x-1-x-x-0--|

E|---------------------------------|----------------------------|
B|---------------------------------|----------8-----------------|
G|---------------------------------|-9p7----7----7--9p7----7----|
D|-x-x-7-7-x-x-10-x-x-13-x-x-11-12-|-----10-------------10---10-|
A|-x-x-----x-x----x-x----x-x-------|----------------------------|
E|-x-x-5-5-x-x-8--x-x-11-x-x-9--10-|----------------------------|

Guitar 2
E|------------------------------|-------------------------------|
B|-xxx10-10-x-x-13-xx-16-x-x-15-|-x-x-10-10-x-x-13-x-x-6-x-x-5--|
G|-xxx------x-x----xx----x-x----|-x-x-------x-x----x-x---x-x----|
D|-xxx7--7--x-x-10-xx-13-x-x-12-|-x-x-7--7--x-x-10-x-x-3-x-x-2--|
A|------------------------------|-------------------------------|
E|------------------------------|-------------------------------|

E|------------------------------|--------------------------|
B|-xxx10-10-x-x-13-xx-16-x-x-15-|-x-x-10-10-x-x------------|
G|-xxx------x-x----xx----x-x----|-x-x-------x-x-10---10----|
D|-xxx7--7--x-x-10-xx-13-x-x-12-|-x-x-7--7--x-x-10-x-10----|
A|------------------------------|---------------8----7-----|
E|------------------------------|--------------------------|

E|------------------------------|-------------------------------|
B|-xxx10-10-x-x-13-xx-16-x-x-15-|-x-x-10-10-x-x-13-x-x-6-x-x-5--|
G|-xxx------x-x----xx----x-x----|-x-x-------x-x----x-x---x-x----|
D|-xxx7--7--x-x-10-xx-13-x-x-12-|-x-x-7--7--x-x-10-x-x-3-x-x-2--|
A|------------------------------|-------------------------------|
E|------------------------------|-------------------------------|

E|------------------------------|------------------------|
B|-xxx10-10-x-x-13-xx-16-x-x-15-|------------------------|
G|-xxx------x-x----xx----x-x----|-9p8p7h9 7p6p5h7--------|
D|-xxx7--7--x-x-10-xx-13-x-x-12-|------------------------|
A|------------------------------|------------------7-6-5-|
E|------------------------------|------------------------|

Verse 1a

Guitar 1
e|---------------------------|----------------------------15--|
B|5p3h5~-3p1h3~--------------|-10p8h10~-13p12h13~-15p13h15sb--|
G|-------------5p4h5~-2p1h2~-|--------------------------------|
D|---------------------------|--------------------------------|
A|---------------------------|--------------------------------|
E|---------------------------|--------------------------------|

Guitar 2
e|-----------------------------------|-------------------------------|
B|17p15h17-15p13h15-13p12h13-10p8h10-|-13p12h13-10p8h10-15p13h15-12/8|
G|-----------------------------------|-------------------------------|
D|-----------------------------------|-------------------------------|
A|-----------------------------------|-------------------------------|
E|-----------------------------------|-------------------------------|

Verse 1b

e|--------------------------------------------|
B|--------------------------------------------|
G|----------10-10-----------------10-10-------|
D|----10-10-------10-10-----10-10-------10-10-|
A|8-8-------------------8-8-------------------|
E|--------------------------------------------|
  xxxxxxxxxxxxxxxxxxxxxxxxxxxxxxxxxxxxxxxxxxxx

e|--------------------------------------|
B|--------------------------------------|
G|----------9-9---------------9-9-------|
D|------9-9-----9-9-------9-9-----9-9---|
A|10-10-------------10-10---------------|
E|--------------------------------------|
  xxxxxxxxxxxxxxxxxxxxxxxxxxxxxxxxxxx

e|--------------------------------------------|
B|--------------------------------------------|
G|----------10-10-----------------10-10-------|
D|----10-10-------10-10-----10-10-------10-10-|
A|8-8-------------------8-8-------------------|
E|--------------------------------------------|
  xxxxxxxxxxxxxxxxxxxxxxxxxxxxxxxxxxxxxxxxxxxx

e|----------------------------------------|
B|----------------------------------------|
G|----------------------------------------|
D|------9-9-10-10-9-9-------9-9-12-12-9-9-|
A|10-10---------------11-11---------------|
E|----------------------------------------|
  xxxxxxxxxxxxxxxxxxxxxxxxxxxxxxxxxxxxxxxx

Chorus 1
e|-----------------------------------------|
B|-----------------------------------------|
G|-----------------------------------------|
D|7===--5-5--3-3--3------------------------| x4
A|7===--5-5--3-3--3--3-2-0-------0---------|
E|5===--3-3--1-1--1--------3-0-3-----------|
                                          x  x  x  x  x  x  x

Verse 2a:

Guitar 1
e|------------------------------------------------------------------|
B|--------------5p3h5~-6p5h6~-13p12h13~-10p8h10~-15p13h15~-12p10h12~|
G|5p4h5~-7p5h7~-----------------------------------------------------|
D|------------------------------------------------------------------|x2
A|------------------------------------------------------------------|
E|------------------------------------------------------------------|

Guitar 2
e|---------------------------------------------------------------|
B|-5p3h5-6p5h6-8p6h8-10p8h10-13p12h13-10p8h10-15p13h15-12p10h12--|
G|---------------------------------------------------------------|
D|---------------------------------------------------------------| x2
A|---------------------------------------------------------------|
E|---------------------------------------------------------------|

Verse 1b:

e|--------------------------------------------|
B|--------------------------------------------|
G|----------10-10-----------------10-10-------|
D|----10-10-------10-10-----10-10-------10-10-|
A|8-8-------------------8-8-------------------|
E|--------------------------------------------|
  xxxxxxxxxxxxxxxxxxxxxxxxxxxxxxxxxxxxxxxxxxxx

e|--------------------------------------|
B|--------------------------------------|
G|----------9-9---------------9-9-------|
D|------9-9-----9-9-------9-9-----9-9---|
A|10-10-------------10-10---------------|
E|--------------------------------------|
  xxxxxxxxxxxxxxxxxxxxxxxxxxxxxxxxxxx

e|--------------------------------------------|
B|--------------------------------------------|
G|----------10-10-----------------10-10-------|
D|----10-10-------10-10-----10-10-------10-10-|
A|8-8-------------------8-8-------------------|
E|--------------------------------------------|
  xxxxxxxxxxxxxxxxxxxxxxxxxxxxxxxxxxxxxxxxxxxx

e|----------------------------------------|
B|----------------------------------------|
G|----------------------------------------|
D|------9-9-10-10-9-9-------9-9-12-12-9-9-|
A|10-10---------------11-11---------------|
E|----------------------------------------|
  xxxxxxxxxxxxxxxxxxxxxxxxxxxxxxxxxxxxxxxx

Chorus 2
e|-----------------------------------------|
B|-----------------------------------------|
G|-----------------------------------------|
D|7===--5-5--3-3--3------------------------| x4
A|7===--5-5--3-3--3--3-2-0-------0---------|
E|5===--3-3--1-1--1--------3-0-3-----------|
                                          x  x  x  x  x  x  x

Bridge a (Bass Solo Thing)

Bridge b

e|------------------------------------------|
B|------------------------------------------|
G|----------5--7/8\7--5-7-5-----------------|
D|7--10--7--5--7/8\7--5-7-5--7--10--7ó5-5\7-| x2
A|7--10--7--3--5/6\5--3-5-3--7--10--7ó5-5\7-|
E|5---8--5-------------------5---8--5ó3-3\5-|

Guitar 2

e|---------------------------------------------------------------|
B|-fb12~----8h10~--------------------8h10~------------10-7-7-----|
G|-----------------------9-7----7-------------9p7-7/9----7-7-9---|
D|----------------6/7-10-----10---10-------10----------------10--|
A|---------------------------------------------------------------|
E|---------------------------------------------------------------|


Bridge c

e|---------------------------------------------------------------|
B|---------------------------------------------------------------|
G|---------------------------------------------------------------|
D|----------------------------5h7--------------------------------| x2
A|------5---------------5---------------5---------------5--------|
E|5-8-5---8-5-3-5-0-8-5---8-5-----5-8-5---8-5-3-5-0-8-5---8-5-5--|

Solo

e|-----15----------------22b-22b-22b-22b-22b-22b~-|
B|-15sb~-sr15-15p12-------------------------------|
G|-----------------14p12--------------------------|
D|------------------------------------------------|
A|------------------------------------------------|
E|------------------------------------------------|

e|---------------------------------------------------------|
B|------------------------------------------------------8--|
G|------------7------7----7-9----7-9-7-9-10-7-9-10-9-10----|
D|7-9-10-9-10---9-10---10-----10---------------------------|
A|---------------------------------------------------------|
E|---------------------------------------------------------|

e|---------------------------------------------8-------8----8-10--|
B|-----8----8-10----8-10-8-10-11-8-10-11-10-11---10-11---11-------|
G|9-10---10------10-----------------------------------------------|
D|----------------------------------------------------------------|
A|----------------------------------------------------------------|
E|----------------------------------------------------------------|

e|---8-10-8-10-11-8-10-11-10-11-13-10-11-13-11-13-15-13-12-13--|
B|11-----------------------------------------------------------|
G|-------------------------------------------------------------|
D|-------------------------------------------------------------|
A|-------------------------------------------------------------|
E|-------------------------------------------------------------|

e|15-13-12-13-17-13-12-13-17-13-12-13/20~~~--|
B|-------------------------------------------|
G|-------------------------------------------|
D|-------------------------------------------|
A|-------------------------------------------|
E|-------------------------------------------|

Chorus 3
e|-----------------------------------------|
B|-----------------------------------------|
G|-----------------------------------------|
D|7===--5-5--3-3--3------------------------| x4
A|7===--5-5--3-3--3--3-2-0-------0---------|
E|5===--3-3--1-1--1--------3-0-3-----------|
                                          x  x  x  x  x  x  x

Chorus 4

e|---------------------------------------|
B|---------------------------------------|
G|----------5-x-5------------------------|
D|7-7-7-7xx-5-x-5-x-3-3-3-3xx-5-x-5------| x4
A|7-7-7-7xx-3-x-3-x-3-3-3-3xx-5-x-5------|
E|5-5-5-5xx---------1-1-1-1xx-3-x-3------|

Outro

e|------------------------------------------------|
B|-----------------------10-10-10~~~~-------------|
G|-------------9-9-9~~~~--------------------------|
D|10-10-10~~~~-----------------------10-10-10~\7--|
A|------------------------------------------------|
E|------------------------------------------------|
Iím sure thereís more to it but my brainís fried so you can just improve to it. Itís out of E.

Big Ending 1

Big Ending 2


End on...
e|----|
B|----|
G|----|
D|7\--|
A|7\--|
E|5\--|

Legend:
/or\: slide up or down
h: hammer on
p: pull-off
b: bend
fb: feedback
~: vibrato
sb: slow bend
sr: slow release





Comments


Popular Bang Camaro tabs & chords
Bang Camaro Tabs
Gates Of Love Intro Tabs
Nightlife Intro 1 Tabs
Out On The Streets Tabs
Out On The Streets 1 Tabs
Push Push Lady Lightning Tabs
Push Push Lady Lightning 4 Tabs
Push Push Lady Lightning Intro Tabs
Rock Rebellion Tabs
Rock Rebellion 1 Tabs


Song lyrics



↑ Back to top | Tablatures and chords are parodies/interpretations of the original songs. You may use it for private study, scholarship, research or language learning purposes only
© 2014 AZChords.com Contact us | Privacy policy | DMCA | Add/correct tabs | Request tabs | Top 50 tabs