>
 >
Pleasure

Pleasure Guitar Tabs

Bang Camaro - Pleasure chords, tabs, tablatures, lyrics

Guitar lessons | Add/correct | Request | Top 50 tabs Artists:  A B C D E F G H I J K L M N O P Q R S T U V W X Y Z 0-9

Pleasure Guitar Tabs – Bang Camaro

CD, Sheet music, Poster

Do you like Pleasure? Share with your friends now
Tabs
-------------------------------------------------------------------------------
                             Pleasure (Pleasure) - Bang Camaro
-------------------------------------------------------------------------------

Tuning: 1/2 step down

(I had the tab edited with the flat sign on all the strings but it showed
a whole bunch of numbers and stuff instead. so please note that it is in 
fact a half step down.)

Intro/Verse 
e|-----------------------------------------------------------|
B|-----------------------------------------------------------|
G|-7-7-6-6-6-------5-5-5-5-5-------7-7-6-6-6-------5-5-4-4-4-|
D|-7-7-7-7-7-------5-5-3-3-3-------7-7-7-7-7-------5-5-3-3-3-|
A|-5-5-7-7-7-0-0-0-3-3-3-3-3-0-0-0-5-5-7-7-7-0-0-0-3-3-3-3-3-|
E|-----------------------------------------------------------|

Filler A
e|----------------------|
B|-------------12^13-r12|
G|-14-12----------------|
D|-------14-12----------|
A|----------------------|
E|----------------------|

Filler B / Transition to Pre-Chorus (I suggest barring the 12)
e|-------------------------12----------12--------------------------------|
B|-------------13-12----------15-13-12----15-13~-------------------------|
G|-14-12-------------14-12---------------------------------------------7-|
D|-------14-12---------------------------------------------------------7-|
A|-------------------------------------------------------------2-3-2---5-|
E|---------------------------------------------------------3-5-------5---|

Pre-Chorus (x is muted fret from the chord before it)
e|---------------------------------------------------------------------------|
B|---------------------------------------------------------------------------|
G|-------------------------7-------------------------9-----------------------|
D|-------------------3-5-5-7-------------------3-5-5-9-----------------------|
A|-x-x-x-x-x-x-x-x-x-3-5-5-5-x-x-x-x-x-x-x-x-x-3-5-5-7-x-x-x-x-x-x-x-x-x-----|
E|-------------------1-3-3---------------------1-3-3-------------------------|

Pre-Chorus cont...
e|---------------------------------------------------------------------------|
B|---------------------------------------------------------------------------|
G|-------9-------8-------7-------6-------5---4-------------------------------|
D|-5-5-7-9-------8-------7-------6-------5---4-------------------------------|
A|-5-5-7-7-x-x-x-6-x-x-x-5-x-x-x-4-x-x-x-3-x-2-------------------------------|
E|-3-3-5---------------------------------------------------------------------|

Chorus. Play chorus and ending A and then play chorus and ending B.
e|------------------------------------------|
B|-----10-------10--------10----8h10p8------|
G|---9--------9---------9--------------9----|
D|-7------7-9------10--------10----------10-|
A|------------------------------------------|
E|------------------------------------------|

Chorus ending A
e|--------------------9~---9-9--10p9----9-12~-|
B|-10---10----12---12----------------12-------|
G|--------------------------------------------|
D|---------12---------------------------------|
A|--------------------------------------------|
E|--------------------------------------------|

Chorus Ending B
e|------------------|
B|------------------|
G|------------------|
D|-3---3---5--5---7-|
A|-3---3---5--5---7-|
E|-1---1---3--3---5-|

Filler C. Play the verse again 3 times then play this fill.
e|------------------------|
B|-15^17r15---------------|
G|----------17-16^17-r16~-|
D|------------------------|
A|------------------------|
E|------------------------|

Filler D
e|-12-13-12-10-12-10----10-13-15-13-12-13-12----12-15-17-15-13-15-13----13-16b17-|
B|-------------------13----------------------15----------------------17----------|
G|-------------------------------------------------------------------------------|
D|-------------------------------------------------------------------------------|
A|-------------------------------------------------------------------------------|
E|-------------------------------------------------------------------------------|

Now go back and play the Pre-Chorus and the chorus with both endings.

Solo A. Play this four times relatively fast.
e|-------------------------------------------------------------------------|
B|-12-15-14-15-12-15-12-15-14-17-15-17-14-17-14-17-15-19-17-19-15-19-15-19-|
G|-------------------------------------------------------------------------|
D|-------------------------------------------------------------------------|
A|-------------------------------------------------------------------------|
E|-------------------------------------------------------------------------|

e|-------------------------|
B|-15-19-17-19-15-19-15-19-|
G|-------------------------|
D|-------------------------|
A|-------------------------|
E|-------------------------|

Solo A Ending Shred
e|--------------------------------------------------------|
B|-------------------18-19-18-----------------------------|
G|----------16-18-19----------19-18-16--------------------|
D|-16-18-19----------------------------19-18-16-----------|
A|----------------------------------------------19-18-16~-|
E|--------------------------------------------------------|

Solo B
e|----------------------------------------------------------------------------|
B|-10---10-----------------------------------------------10-12-12b14r12b15r12-|
G|--9br--9p7--------------7-9-7---7-10-9p7-------9-7-9b-----------------------|
D|-----------9--7---7-8-9-------9----------9-7-9------------------------------|
A|----------------------------------------------------------------------------|
E|----------------------------------------------------------------------------|

e|--------------------------------------------------------------------------|
B|-----14-15-16-17-17b--17p15----15------15\14----14\12--10h12p10----10-----|
G|-/16------------------------16------16-------14-----------------11----11\9|
D|--------------------------------------------------------------------------|
A|--------------------------------------------------------------------------|
E|--------------------------------------------------------------------------|

e|-----------------------------------|
B|-----------------------------------|
G|-------7---7h9--9--8--6b--6--4b--4-|
D|-7-8-9---9-------------------------|
A|-----------------------------------|
E|-----------------------------------|

Play the Verse twice then play the Bridge

Bridge. play twice
e|---------------------------------------------------------------------------|
B|----12-------12-------12-------12-------12-------12-------15-------15------|
G|-------12-------12-------12-------12-------12-------12-------12-------12---|
D|-14-------14-------14-------14-------14-------14-------14-------14-------14|
A|---------------------------------------------------------------------------|
E|---------------------------------------------------------------------------|

e|---------------------------------------------------------------------------|
B|-15-------15---------------------------------------------------------------|
G|----12-------12------------------------------------------------------------|
D|-------14------------------------------------------------------------------|
A|---------------------------------------------------------------------------|
E|---------------------------------------------------------------------------|

Ending Chorus
Play chorus and ending A and then play chorus outro
e|------------------------------------------|
B|-----10-------10--------10----8h10p8------|
G|---9--------9---------9--------------9----|
D|-7------7-9------10--------10----------10-|
A|------------------------------------------|
E|------------------------------------------|

Chorus ending A
e|--------------------9~---9-9--10p9----9-12~-|
B|-10---10----12---12----------------12-------|
G|--------------------------------------------|
D|---------12---------------------------------|
A|--------------------------------------------|
E|--------------------------------------------|

Chorus outro
e|------------------------------------------------------------------------|
B|-----10-------10--------10-----10-13-----------13--------15-------------|
G|---9--------9---------9--------------12-10~-10----10--12----12-12/14~~~-|
D|-7------7-9------10--------10-------------------------------------------|
A|------------------------------------------------------------------------|
E|------------------------------------------------------------------------|




Correction credits:
FishStik - intro
samps 88 - tuning
megadeth45 - solo
giBson sG duDe - intro
Justin Toddhunter - Solo
Aug 8, 2009 - Major revisions
Goron40 - Adjustments to the fills

| r release bend 
| * Pinch Harmonic
| /  slide up
| \  slide down
| h  hammer-on
| p  pull-off
| ~  vibrato
| ^  bend
| x  Mute note
===============================================================================





Comments


Popular Bang Camaro tabs & chords
Push Push Lady Lightning Bass Tabs
Push Push Lady Lightning 1 Bass Tabs
The Hit Chords
Bang Camaro Tabs
Gates Of Love Intro Tabs
Nightlife Intro Tabs
Out On The Streets Tabs
Push Push Lady Lightning Tabs
Push Push Lady Lightning 1 Tabs
Push Push Lady Lightning 2 Tabs


Song lyrics



↑ Back to top | Tablatures and chords are parodies/interpretations of the original songs. You may use it for private study, scholarship, research or language learning purposes only
© 2014 AZChords.com Contact us | Privacy policy | DMCA | Add/correct tabs | Request tabs | Top 50 tabs