» » »

Nightlife Commando Tabs (ver.1)

Artists:  A B C D E F G H I J K L M N O P Q R S T U V W X Y Z # 

Nightlife Commando Tabs (ver.1)

Bang Camaro
Rating:
0/5 (0 votes)

Tabs too difficult? Try these video lessons and learn fast.
                (/) Slide Up  (\) Slide Down  (h) Hammer On  (p) Pull Off  (b) Bend (r) Release (v) Vibrato

Lead Guitar:

E|-----------------------------------------------------------------------------------|
B|-----------------------------------------------------------------------------------|
G|-----------------------------------------------------------------------------------|
D|-0/9-9-7-9/12-10-9-7-9-7\5-7-5-7/10-10p8h10-8p6h8-6p4h6-4p2h4----------------------|
A|-----------------------------------------------------------------------------------|
E|-----------------------------------------------------------------------------------|

E|------------------------|
B|------------------------|
G|------------------------|
D|-0/9-9-8-7-6-5-4--1-2-4-|
A|------------------------|
E|------------------------|
							
Rhythm Guitar:

E|--0-----------0--|--0-----------|--2--------------2--|--3-----------0--|
B|--0-----------0--|--1--1--1--1--|--3--3--3--3-----3--|--0-----------0--|
G|--0--0--0--0--0--|--2--2--2--2--|--2--2--2--2-----2--|--0--0--0--0--0--|
D|--2--2--2--2-----|--2--2--2--2--|--0--0--0--0--------|--0--0--0--0-----|
A|--2--2--2--2-----|--------------|--------------------|--2--2--2--2-----|
E|--0--------------|--------------|--------------------|--3--------------|

E|--2--------------0--|
B|--0-----------0--0--|
G|--2--------2-----1--|
D|--0-----0--------2--|
A|--2--2-----------2--|
E|-----------------0--|
            
Tabs too difficult? Try these video lessons and learn fast.


comments powered by Disqus
↑ Back to top | Tablatures and chords are parodies/interpretations of the original songs. You may use it for private study, scholarship, research or language learning purposes only