» » »

Bang Camaro, Gates Of Love Tabs (ver.1)

Artists:  A B C D E F G H I J K L M N O P Q R S T U V W X Y Z # 

Gates Of Love Tabs (ver.1)

Bang Camaro Tabs
 Rating:
4/5 (6 votes)
Gates Of Love lessons Tabs too difficult? Try these video lessons and learn fast
1
                (Intro)

Sorry Couldn't Figure The 2nd Guitar Part.

E|---------------------------------------------------|
B|---------------------------------------------------|
G|--/9--12--14--16-----14-16---------17-16----14--12-|
D|---------------------------------------------------|
A|---------------------------------------------------|
E|---------------------------------------------------|


E|-------------------------------------------------------------|
B|----------------------15--13--12-13-----10--8--7--8--7-------|
G|--11~---11-12-14----------------------------------------7--5-|
D|-------------------------------------------------------------|
A|-------------------------------------------------------------|
E|-------------------------------------------------------------|

E|-------------3-5-----------3-5-7-------------7--8---------|
B|---------3-5-----5-----3-5-----------8---10--------10--8--|
G|-4~-------------------------------------------------------|
D|----------------------------------------------------------|
A|----------------------------------------------------------|
E|----------------------------------------------------------|

E|--------------------19--17-15-17~--------------------------|
B|-20----17-15-17-------------------------------------------|
G|----------------------------------------------------------|
D|----------------------------------------------------------|
A|----------------------------------------------------------|
E|----------------------------------------------------------|

(1st guitar top second guitar bottom)


E|---------------------------------------------------|
0B|---------------------------------------------------|0
G|---------------------------------------------------|
D|---------5a~-------2a~---------9a~-----7a~---------|
0A|---------------------------------------------------|0
E|--0-0-0-------0-0--------0-0--------0--------------|
   |                                                   |
 E|---------------------------------------------------|
0B|---------------------------------------------------|0
 G|---------------------------------------------------|
 D|---------------------------------------------------|
0A|---------7a~-------3a~---------10a~----7a~---------|0
 E|--0-0-0-------0-0--------0-0--------0--------------|

key:
/: Slide Into Note 
~: tremolo

that's all i can get be bothered finding out. please rate
            
Submit corrections

comments powered by Disqus
↑ Back to top | Bang Camaro Tabs for Gates Of Love. Lyrics for acoustic guitar and electric guitar. 1 Tablatures and chords are parodies/interpretations of the original songs. You may use it for private study, scholarship, research or language learning purposes only