» » »

What Holds Us Down Tabs (ver.1)

Artists:  A B C D E F G H I J K L M N O P Q R S T U V W X Y Z # 

What Holds Us Down Tabs (ver.1)

Bane
Rating:
0/5 (0 votes)

Hard to play? Try these video lessons and learn fast.
                -------------------------------------------------------------------------------
-------------------------------------------------------------------------------

Tuning: Standard E

e|---------------------------------------------------------------------------|
B|---------------------------------------------------------------------------|
G|---------------------------------------------------------------------------|
D|--9---9-8--8-7--------9--9-8---9--9-8--8-7--2-2-2-2--9---9-8---------------|
A|--9---9-8--8-7--------9--9-8---9--9-8--8-7--2-2-2-2--9---9-8---------------|
E|--7---7-6--6-5--------7--7-6---7--7-6--6-5--0-0-0-0--7---7-6---------------|


e|---------------------------------------------------------------------------|
B|---------------------------------------------------------------------------|
G|--9-----------9---------:tr:-----------------------------------------------|
D|--9-9-12-8----9-9-12-8-----------------------------------------------------|
A|--7-9-12-8----7-9-12-8-----------------------------------------------------|
E|----7-10-6------7-10-6--56565----------------------------------------------|


e|---------------------------------------------------------------------------|
B|---------------------------------------------------------------------------|
G|--9---7-9--9------9---7-9--9--:tr:-----------------------------------------|
D|--9-8-7-9--9-8----9-8-7-9--9-----------------------------------------------|
A|--7-8-5-7--7-8----7-8-5-7--7-----------------------------------------------|
E|----6--------6------6---------56565---x2-----------------------------------|

e|---------------------------------------------------------------------------|
B|---------------------------------------------------------------------------|
G|--9---7--------------------------------------------------------------------|
D|--9-8-7-8------------------------------------------------------------------|
A|--7-8-5-8------------------------------------------------------------------|
E|----6---6-5\6/5---x4-------------------------------------------------------|

e|-----------------------------------------------------------------------------|
B|-----------------------------------------------------------------------------|
G|-----------------------------------------------------------------------------|
D|--8-8--8-8--8-8--8-8--8--2-2222222--22222222--8-8----------------------------|
A|--8-8--8-8--8-8--8-8--8--2-2222222--22222222--8-8----------------------------|
E|--6-6--6-6--6-6--6-6--6--0-00000005600000000--6-6----------------------------|

The end is all chugging with the occasional A and Bb added.

| /  slide up
| \  slide down
| h  hammer-on
| p  pull-off
| ~  vibrato
| tr trill
| +  harmonic
| x  mute note
            
Hard to play? Try these video lessons and learn fast. | Correct




comments powered by Disqus
↑ Back to top | Tablatures and chords are parodies/interpretations of the original songs. You may use it for private study, scholarship, research or language learning purposes only