>
 >
Wasted On The Young

Wasted On The Young Guitar Tabs

Bane - Wasted On The Young chords, tabs, tablatures, lyrics

Guitar lessons | Add/correct | Request | Top 50 tabs Artists:  A B C D E F G H I J K L M N O P Q R S T U V W X Y Z 0-9

Wasted On The Young Guitar Tabs – Bane

CD, Sheet music, Poster

Do you like Wasted On The Young? Share with your friends now
Tabs
/ - slide
~ - Let ring

Intro
e|-------------------------------------------------------------------------------|
B|-------------------------------------------------------------------------------|
G|-12/9-9--12/9-9--5-5---12/9-9--12/9-9--7-7---12/9-9--12/9-9--5-5--4-5-4-5-7-7--|
D|-x--x-x--x--x-x--5-5---x--x-x--x--x-x--7-7---x--x-x--x--x-x--5-5--4-5-4-5-7-7--|
A|-10/7-7--10/7-7--3-3---10/7-7--10/7-7--5-5---10/7-7--10/7-7--3-3--2-3-2-3-5-5--|
E|-------------------------------------------------------------------------------|

e|---------------------|
B|---------------------|
G|-4-5-4-5-7-7--9/7/9--|
D|-4-5-4-5-7-7--9/7/9--|
A|-2-3-2-3-5-5--7/5/7--|
E|---------------------|


Verse
e|------------------------------|
B|------------------------------|
G|-9/7/9--5---9/7/9---9/7/9--5--|
D|-9/7/9--5---9/7/9---9/7/9--5--|
A|-7/5/7--3---7/5/7---7/5/7--3--|
E|------------------------------|

e|------------------------------------------------------------------------------------------|
B|------------------------------------------------------------------------------------------|
G|-9/7/9--------------------9/7/9---5-4-5-4---9/7/9--------------------9/7/9---5-4-5-4-5/4--|
D|-9/7/9--2-2-2-2-2-2-2-2---9/7/9---5-4-5-4---9/7/9--2-2-2-2-2-2-2-2---9/7/9---5-4-5-4-5/4--|
A|-7/5/7--2-2-2-2-2-2-2-2---7/5/7---3-2-3-2---7/5/7--2-2-2-2-2-2-2-2---7/5/7---3-2-3-2-3/2--|
E|--------0-0-0-0-0-0-0-0----------------------------0-0-0-0-0-0-0-0------------------------|


Chorus
e|--------------------------------------------------------------------|
B|--------------------------------------------------------------------|
G|-16/14/12/9--9-9-9-9-9-9-9-9---16/14/12/9--11-11-11-11-12-12-12-12--|
D|-x--x--x--x--9-9-9-9-9-9-9-9---x--x--x--x--11-11-11-11-12-12-12-12--|
A|-14/12/10/7--7-7-7-7-7-7-7-7---14/12/10/7--9--9--9--9--10-10-10-10--|
E|--------------------------------------------------------------------|

e|----------------------------------------------------------------------------|
B|----------------------------------------------------------------------------|
G|-16/14/12/9--14-14-14-14-14-14-14-14---16/14/12/9--11-11-11-11-12-12-12-12--|
D|-x--x--x--x--14-14-14-14-14-14-14-14---x--x--x--x--11-11-11-11-12-12-12-12--|
A|-14/12/10/7--12-12-12-12-12-12-12-12---14/12/10/7--9--9--9--9--10-10-10-10--|
E|----------------------------------------------------------------------------|

e|--------------------------------------------------------------------|
B|--------------------------------------------------------------------|
G|-16/14/12/9--9-9-9-9-9-9-9-9---16/14/12/9--11-11-11-11-12-12-12-12--|
D|-x--x--x--x--9-9-9-9-9-9-9-9---x--x--x--x--11-11-11-11-12-12-12-12--|
A|-14/12/10/7--7-7-7-7-7-7-7-7---14/12/10/7--9--9--9--9--10-10-10-10--|
E|--------------------------------------------------------------------|

e|----------------------------------------------------------------------------|
B|----------------------------------------------------------------------------|
G|-16/14/12/9--14-14-14-14-14-14-14-14---16/14/12/9--11-11-11-11-12-12-12-12--|
D|-x--x--x--x--14-14-14-14-14-14-14-14---x--x--x--x--11-11-11-11-12-12-12-12--|
A|-14/12/10/7--12-12-12-12-12-12-12-12---14/12/10/7--9--9--9--9--10-10-10-10--|
E|----------------------------------------------------------------------------|


Verse
e|--------------------------------------|
B|--------------------------------------|
G|-9/7/9---9/7/9--5---9/7/9---9/7/9--5--|
D|-9/7/9---9/7/9--5---9/7/9---9/7/9--5--|
A|-7/5/7---7/5/7--3---7/5/7---7/5/7--3--|
E|--------------------------------------|

e|-----------------------------------------------------------------------------------------------|
B|-----------------------------------------------------------------------------------------------|
G|-9/7/9--------------------9/7/9---5-4-5-4---9/7/9--------------------4-5-4-5-7-7--4-5-4-5-7-7--|
D|-9/7/9--2-2-2-2-2-2-2-2---9/7/9---5-4-5-4---9/7/9--2-2-2-2-2-2-2-2---4-5-4-5-7-7--4-5-4-5-7-7--|
A|-7/5/7--2-2-2-2-2-2-2-2---7/5/7---3-2-3-2---7/5/7--2-2-2-2-2-2-2-2---2-3-2-3-5-5--2-3-2-3-5-5--|
E|--------0-0-0-0-0-0-0-0----------------------------0-0-0-0-0-0-0-0-----------------------------|


Sing Along!
e|-------------------------------------------------------------------------------|
B|-------------------------------------------------------------------------------|
G|-12/9-9--12/9-9--5-5---12/9-9--12/9-9--7-7---12/9-9--12/9-9--5-5--4-5-4-5-7-7--|
D|-x--x-x--x--x-x--5-5---x--x-x--x--x-x--7-7---x--x-x--x--x-x--5-5--4-5-4-5-7-7--|
A|-10/7-7--10/7-7--3-3---10/7-7--10/7-7--5-5---10/7-7--10/7-7--3-3--2-3-2-3-5-5--|
E|-------------------------------------------------------------------------------|

e|--------------------------------------------------------------------------------------------|
B|--------------------------------------------------------------------------------------------|
G|-12/9-9--12/9-9--5-5---12/9-9--12/9-9--7-7---12/9-9--12/9-9--5-5--4-5-4-5-7-7--4-5-4-5-7-7--|
D|-x--x-x--x--x-x--5-5---x--x-x--x--x-x--7-7---x--x-x--x--x-x--5-5--4-5-4-5-7-7--4-5-4-5-7-7--|
A|-10/7-7--10/7-7--3-3---10/7-7--10/7-7--5-5---10/7-7--10/7-7--3-3--2-3-2-3-5-5--2-3-2-3-5-5--|
E|--------------------------------------------------------------------------------------------|


Interlude
e|--------------------------------------------|
B|--------------------------------------------|
G|-9~-9--11--14/12/11-12~--16-16-16-14-14-14--|
D|-9~-x--x---x--x--x--x----x--x--x--x--x--x---|
A|-7~-7--9---12/10/9--10~--14-14-14-12-12-12--|
E|--------------------------------------------|

e|---------------------------------------------------------------------------------------------|
B|---------------------------------------------------------------------------------------------|
G|-9-9-9-9-9-9-9-9--11-11-11-11-11-11-11-11--12-12-12-12-12-12-12-12--16-16-16-16-14-14-14-14--|
D|-9-9-9-9-9-9-9-9--11-11-11-11-11-11-11-11--12-12-12-12-12-12-12-12--x--x--x--x--x--x--x--x---|
A|-7-7-7-7-7-7-7-7--9--9--9--9--9--9--9--9---10-10-10-10-10-10-10-10--14-14-14-16-12-12-12-12--|
E|---------------------------------------------------------------------------------------------|


Chorus
e|--------------------------------------------------------------------|
B|--------------------------------------------------------------------|
G|-16/14/12/9--9-9-9-9-9-9-9-9---16/14/12/9--11-11-11-11-12-12-12-12--|
D|-x--x--x--x--9-9-9-9-9-9-9-9---x--x--x--x--11-11-11-11-12-12-12-12--|
A|-14/12/10/7--7-7-7-7-7-7-7-7---14/12/10/7--9--9--9--9--10-10-10-10--|
E|--------------------------------------------------------------------|

e|----------------------------------------------------------------------------|
B|----------------------------------------------------------------------------|
G|-16/14/12/9--14-14-14-14-14-14-14-14---16/14/12/9--11-11-11-11-12-12-12-12--|
D|-x--x--x--x--14-14-14-14-14-14-14-14---x--x--x--x--11-11-11-11-12-12-12-12--|
A|-14/12/10/7--12-12-12-12-12-12-12-12---14/12/10/7--9--9--9--9--10-10-10-10--|
E|----------------------------------------------------------------------------|

e|--------------------------------------------------------------------|
B|--------------------------------------------------------------------|
G|-16/14/12/9--9-9-9-9-9-9-9-9---16/14/12/9--11-11-11-11-12-12-12-12--|
D|-x--x--x--x--9-9-9-9-9-9-9-9---x--x--x--x--11-11-11-11-12-12-12-12--|
A|-14/12/10/7--7-7-7-7-7-7-7-7---14/12/10/7--9--9--9--9--10-10-10-10--|
E|--------------------------------------------------------------------|

e|----------------------------------------------------------------------------|
B|----------------------------------------------------------------------------|
G|-16/14/12/9--14-14-14-14-14-14-14-14---16/14/12/9--11-11-11-11-12-12-12-12--|
D|-x--x--x--x--14-14-14-14-14-14-14-14---x--x--x--x--11-11-11-11-12-12-12-12--|
A|-14/12/10/7--12-12-12-12-12-12-12-12---14/12/10/7--9--9--9--9--10-10-10-10--|
E|----------------------------------------------------------------------------|

e|-------------------------------------------------------------------------------|
B|-------------------------------------------------------------------------------|
G|-12/9-9--12/9-9--5-5---12/9-9--12/9-9--7-7---12/9-9--12/9-9--5-5--4-5-4-5-7-7--|
D|-x--x-x--x--x-x--5-5---x--x-x--x--x-x--7-7---x--x-x--x--x-x--5-5--4-5-4-5-7-7--|
A|-10/7-7--10/7-7--3-3---10/7-7--10/7-7--5-5---10/7-7--10/7-7--3-3--2-3-2-3-5-5--|
E|-------------------------------------------------------------------------------


Ending
e|-------------------------------------------------------------------------------|
B|-------------------------------------------------------------------------------|
G|-12/9-9--12/9-9--5-5---12/9-9--12/9-9--7-7---12/9-9--12/9-9--5-5--4-5-4-5-7-7--|
D|-x--x-x--x--x-x--5-5---x--x-x--x--x-x--7-7---x--x-x--x--x-x--5-5--4-5-4-5-7-7--|
A|-10/7-7--10/7-7--3-3---10/7-7--10/7-7--5-5---10/7-7--10/7-7--3-3--2-3-2-3-5-5--|
E|-------------------------------------------------------------------------------|

e|---------------------------------------------------------------------------------|
B|---------------------------------------------------------------------------------|
G|-12/9-9--12/9-9--5-5---12/9-9--12/9-9--7777---12/9-9--12/9-9--5-5--4-5-4-5-7777--|
D|-x--x-x--x--x-x--5-5---x--x-x--x--x-x--7777---x--x-x--x--x-x--5-5--4-5-4-5-7777--|
A|-10/7-7--10/7-7--3-3---10/7-7--10/7-7--5555---10/7-7--10/7-7--3-3--2-3-2-3-5555--|
E|---------------------------------------------------------------------------------|





Comments


Popular Bane tabs & chords
Ante Up Tabs
At Best Tabs
Can We Start Again Tabs
Forked Tongue Tabs
Fuck What You Heard Tabs
In Pieces Tabs
Lay The Blame Tabs
Pay The Price Tabs
Superhero Tabs
What Keeps Us Here Tabs


Song lyrics



↑ Back to top | Tablatures and chords are parodies/interpretations of the original songs. You may use it for private study, scholarship, research or language learning purposes only
© 2014 AZChords.com Contact us | Privacy policy | DMCA | Add/correct tabs | Request tabs | Top 50 tabs