» » »

Superhero Tabs (ver.1)

Artists:  A B C D E F G H I J K L M N O P Q R S T U V W X Y Z # 

Superhero Tabs (ver.1)

Bane
Rating:
5/5 (2 votes)

Hard to play? Try these video lessons and learn fast.
                -------------------------------------------------------------------------------
-------------------------------------------------------------------------------

   Intro

     E|---------------------------------------------------------------------------|
     B|---------------------------------------------------------------------------|
     G|---------------------------------------------------------------------------|
  1. D|---------------------------------------------------------------------------|
     A|--7-7-7-7-7-7--2-2-2-2-2--3-3-3-3-3-3--5-5-5-5-----------------------------|
     E|------------------------------------------------5-5--3-3-------------------|

     E|---------------------------------------------------------------------------|
     B|---------------------------------------------------------------------------|
     G|---------------------------------------------------------------------------|
  2. D|---------------------------------------------------------------------------|
     A|--7--10-9-10-5--10-9-10-7--10-9-10-5---------------------------------------|
     E|---------------------------------------------------------------------------|

   Pre/Verse
E|---------------------------------------------------------------------------|
B|---------------------------------------------------------------------------|
G|--9-9-9-9-9--4-4-4-4--5-5-5-5--7-7-7-7-----------------9-9-9-9-9--7-7-7-7--|
D|--9-9-9-9-9--4-4-4-4--5-5-5-5--7-7-7-7--7-7-7--5-5-5---9-9-9-9-9--7-7-7-7--|
A|--7-7-7-7-7--2-2-2-2--3-3-3-3--5-5-5-5--7-7-7--5-5-5---7-7-7-7-7--5-5-5-5--|
E|----------------------------------------5-5-5--3-3-3-----------------------|

					          Chorus
E|-------------------------------------|--------|----------------------------|
B|-------------------------------------|--(x2)--|-----------------*-*--------|
G|--12-12-12--11-11-11-11--7-7-7--9-7--|--------|--9-9-9-9-9-9-9--5-5--------|
D|-------------------------7-7-7--9-7--|--------|--9-9-9-9-9-9-9--5-5--5-4---|
A|--10-10-10--9--9--9--9---5-5-5--7/5--|--------|--7-7-7-7-7-7-7--3-3--------|
E|-------------------------------------|--------|----------------------------|

E|--------------|--------|---------------------------------------------------|
B|--*-*---------|--(x2)--|---------------------------*-*-------*-*-----------|
G|--7-7---------|--------|--9-9-9-9-9----------------5-5-------7-7-----------|
D|--7-7--5-4----|--------|--9-9-9-9-9--4-4-4-5-5-5---5-5--5-4--7-7--5-4------|
A|--5-5------5--|--------|--7-7-7-7-7----------------3-3-------5-5------5----|
E|--------------|--------|---------------------------------------------------|

   Bridge				       Break	
E|-------------------------------------------|-------------------------------|
B|-----------------*-*-*-*-*-*--*-*-*-*-*-*--|-------------------------(xX)--|
G|--9-9-9-9-9-9-9--4-4-4-4-4-4--7-7-7-7-7-7--|--4-7--4-7--4-2----------------|
D|--9-9-9-9-9-9-9--4-4-4-4-4-4--7-7-7-7-7-7--|--4-7--4-7--4-2----------------|
A|--7-7-7-7-7-7-7--2-2-2-2-2-2--5-5-5-5-5-5--|--2-5--2-5--2-0----------------|
E|-------------------------------------------|-------------------------------|

   Repeat Verse/Chorus/Bridge

   Break					   Outro
E|-----------------------------------------|-----|---------------------|-----|
B|------------------------------------(x2)-|-----|----------------(x4)-|-----|
G|--4-7-----------5---4-7-----------5------|--4--|--4-7--4-7--4-2------|--9--|
D|--4-7--7-7-5--4-5---4-7--7-7-5--7-5------|-----|--4-7--4-7--4-2------|--9--|
A|--2-5--7-7-5--4-3---2-5--7-7-5--7-3------|--2--|--2-5--2-5--2-0------|--7--|
E|-------5-5-3--2----------5-5-3--5--------|-----|---------------------|-----|

E|---------------------------------------------------------------------------||
B|---------------------------------------------------------------------------||
G|--9-x-9--7-----------------------------------------------------------------||
D|--9-x-9--7-----------------------------------------------------------------||
A|--7-x-7--5-----------------------------------------------------------------||
E|---------------------------------------------------------------------------||

===============================================================================
            
Hard to play? Try these video lessons and learn fast. | Correct




comments powered by Disqus
↑ Back to top | Tablatures and chords are parodies/interpretations of the original songs. You may use it for private study, scholarship, research or language learning purposes only