» » »

Bane, Speechless Tabs (ver.1)

Artists:  A B C D E F G H I J K L M N O P Q R S T U V W X Y Z # 

Speechless Tabs (ver.1)

Bane Tabs
Rating:
0/5 (0 votes)
Hard to play? Try these video lessons and learn fast.
                -------------------------------------------------------------------------------
-------------------------------------------------------------------------------


            Verse
E|--------|------------------------------------------------------------------|
B|--------|------------------------------------------------------------(x4)--|
G|--4--4--|--4------------7--------------------------------------------------|
D|--4--4--|--4------------7--------------------------------------------------|
A|--2--2--|--2--3/0-------5--------------------------------------------------|
E|--------|----------3/0-----------------------------------------------------|

   Chorus
E|---------------------------------------------------------------------------|
B|------------------------------------------8-8-8-8-8---8-8-8--7-7-7--8-8-8--|
G|--7-7-7--8-8-8--9-9-9-9-9---7-7-7--8-8-8-----------------------------------|
D|------------------------------------------5-5-5-5-5---5-5-5--4-4-4--5-5-5--|
A|--5-5-5--6-6-6--7-7-7-7-7---5-5-5--6-6-6-----------------------------------|
E|---------------------------------------------------------------------------|

			  	    Chorus
E|-----------------------|        |------------------------------------------|
B|-----------------------|        |------------------------------------------|
G|--------------------4--| Repeat |--7-7-7--8-8-8--9-9-9-9-9---7-7-7--8-8-8--|
D|--------------------4--| Verse  |------------------------------------------|
A|--2/0-2/0-----------2--|        |--5-5-5--6-6-6--7-7-7-7-7---5-5-5--6-6-6--|
E|-----------3/0--0------|        |------------------------------------------|

E|-------------------------------------------------------------------|-------|
B|--8-8-8-8-8---8-8-8--7-7-7--8-8-8-8-8---8-8-8--7-7-7--11-11-11-11--|--(x4)-|
G|-------------------------------------------------------------------|-------|
D|--5-5-5-5-5---5-5-5--4-4-4--5-5-5-5-5---5-5-5--4-4-4--9--9--9--9---|--2----|
A|-------------------------------------------------------------------|--2----|
E|-------------------------------------------------------------------|--0----|

   Outro
E|---------------------------------------------------------------------------|
B|----------------------------------------------------------------------(x4)-|
G|--4-6-6-6-4-6-6-6-4-6-6-6-4-6-6-6-4--7-7-7-4-7-7-7-4-7-7-7-7-7-7-7-4-------|
D|--4-6-6-6-4-6-6-6-4-6-6-6-4-6-6-6-4--7-7-7-4-7-7-7-4-7-7-7-7-7-7-7-4-------|
A|--2-4-4-4-2-4-4-4-2-4-4-4-2-4-4-4-2--5-5-5-2-5-5-5-2-5-5-5-2-5-5-5-2-------|
E|---------------------------------------------------------------------------|

E|---------------------------------------------------------------------------|
B|---------------------------------------------------------------------------|
G|--4-6-6-6-4-6-6-6-4-6-6-6-4-6-6-6-4--7-7-7-4-7-7-7-4--9-9-9-9-9-9-9-9------|
D|--4-6-6-6-4-6-6-6-4-6-6-6-4-6-6-6-4--7-7-7-4-7-7-7-4-----------------------|
A|--2-4-4-4-2-4-4-4-2-4-4-4-2-4-4-4-2--5-5-5-2-5-5-5-2-----------------------|
E|---------------------------------------------------------------------------|

E|---------------------------------------------------------------------------|
B|----------------------------------------------------------------------(x2)-|
G|--4-6-6-6-4-6-6-6-4-6-6-6-4-6-6-6-4--7-7-7-4-7-7-7-4-7-7-7-7-7-7-7-4-------|
D|--4-6-6-6-4-6-6-6-4-6-6-6-4-6-6-6-4--7-7-7-4-7-7-7-4-7-7-7-7-7-7-7-4-------|
A|--2-4-4-4-2-4-4-4-2-4-4-4-2-4-4-4-2--5-5-5-2-5-5-5-2-5-5-5-2-5-5-5-2-------|
E|---------------------------------------------------------------------------|

E|---------------------------------------------------------------------------||
B|---------------------------------------------------------------------------||
G|--4-6-6-6-4-6-6-6-4--7-7---------------------------------------------------||
D|--4-6-6-6-4-6-6-6-4--7-7---------------------------------------------------||
A|--2-4-4-4-2-4-4-4-2--5-5/--------------------------------------------------||
E|---------------------------------------------------------------------------||

===============================================================================
            

comments powered by Disqus
↑ Back to top | Bane Tabs for Speechless. Lyrics for acoustic guitar and electric guitar. Tablatures and chords are parodies/interpretations of the original songs. You may use it for private study, scholarship, research or language learning purposes only