» » »

Bane, Speachless Tabs (ver.1)

Artists:  A B C D E F G H I J K L M N O P Q R S T U V W X Y Z # 

Speachless Tabs (ver.1)

Bane Tabs
 Rating:
4.2/5 (5 votes)
Speachless lessons Tabs too difficult? Try these video lessons and learn fast
                p - pull off
/ - slide
x - dead note

Intro x1
e|------|
B|------|
G|-4-4--|
D|-4-4--|
A|-2-2--|
E|------|

Verse x2
e|-------------------|
B|-------------------|
G|-4-5---7--4-5-6-7--|
D|-4-5-5-7--4-5-6-7--|
A|-2-3-5-5--2-3-4-5--|
E|-----3-------------|

Chorus x1
e|----------------------------------------------------|
B|----------------------------------------------------|
G|-7-7-7--8-8-8--9-9-9-9---7-7-7--8-8-8--12-12-12-12--|
D|-x-x-x--x-x-x--x-x-x-x---x-x-x--x-x-x--x--x--x--x---|
A|-5-5-5--6-6-6--7-7-7-7---5-5-5--6-6-6--10-10-10-10--|
E|----------------------------------------------------|

e|----------------------------------|
B|----------------------------------|
G|-12-12-12--11-11-11--12-12-12-12--|
D|-x--x--x---x--x--x---x--x--x--x---|
A|-10-10-10--9--9--9---10-10-10-10--|
E|----------------------------------|

Fill x1
e|------------------|
B|------------------|
G|-4-4---------7-4--|
D|-4-4---------7-4--|
A|-2-2-3p0-----5-2--|
E|---------3p0------|

Verse x2
e|-------------------|
B|-------------------|
G|-4-5---7--4-5-6-7--|
D|-4-5-5-7--4-5-6-7--|
A|-2-3-5-5--2-3-4-5--|
E|-----3-------------|

Chorus x1
e|----------------------------------------------------|
B|----------------------------------------------------|
G|-7-7-7--8-8-8--9-9-9-9---7-7-7--8-8-8--12-12-12-12--|
D|-x-x-x--x-x-x--x-x-x-x---x-x-x--x-x-x--x--x--x--x---|
A|-5-5-5--6-6-6--7-7-7-7---5-5-5--6-6-6--10-10-10-10--|
E|----------------------------------------------------|

e|--------------------------------------------------------------------|
B|--------------------------------------------------------------------|
G|-12-12-12--11-11-11--12-12-12-12---12-12-12--11-11-11--16-16-16-16--|
D|-x--x--x---x--x--x---x--x--x--x----x--x--x---x--x--x---x--x--x--x---|
A|-10-10-10--9--9--9---10-10-10-10---10-10-10--9--9--9---14-14-14-14--|
E|--------------------------------------------------------------------|

Break x1
e|-------------|
B|-------------|
G|-------------|
D|-2--2--2--2--|
A|-2--2--2--2--|
E|-0--0--0--0--|

Breakdown x7 (second guitar doesn't follow the pattern exactly, but its more or less the same)
e|--------------------------------------------------------------------------|
B|--------------------------------------------------------------------------|
G|--4/6-6-6--4/6-6-6--4/6-6-6--4/6-6-6--4/7-7-7--4/7-7-7--4/7-7-7--4/7-7-7--|
D|--4/6-6-6--4/6-6-6--4/6-6-6--4/6-6-6--4/7-7-7--4/7-7-7--4/7-7-7--4/7-7-7--|
A|--2/4-4-4--2/4-4-4--2/4-4-4--2/4-4-4--2/5-5-5--2/5-5-5--2/5-5-5--2/5-5-5--|
E|--------------------------------------------------------------------------|

End x1
e|--------------------|
B|--------------------|
G|-6-6--4/6-6-6--4/7--|
D|-6-6--4/6-6-6--4/7--|
A|-4-4--2/4-4-4--2/5--|
E|--------------------|
            
Submit corrections

comments powered by Disqus
↑ Back to top | Bane Tabs for Speachless. Lyrics for acoustic guitar and electric guitar. Tablatures and chords are parodies/interpretations of the original songs. You may use it for private study, scholarship, research or language learning purposes only