» » »

Some Came Running Tabs (ver.1)

Artists:  A B C D E F G H I J K L M N O P Q R S T U V W X Y Z # 

Some Came Running Tabs (ver.1)

Bane
Rating:
0/5 (0 votes)

Hard to play? Try these video lessons and learn fast.
                -------------------------------------------------------------------------------
-------------------------------------------------------------------------------


   Intro
E|---------------------------------------------------------------------------|
B|---------------------------------------------------------------------------|
G|--9-----------------11-11-11-11---9-----------------10-10-10-10---9--------|
D|--9-9-10-9-10-9-10--11-11-11-11---9-9-10-9-10-9-10--10-10-10-10---9-9-10---|
A|--7-9-10-9-10-9-10--9--9--9--9----7-9-10-9-10-9-10--8--8--8--8----7-9-10---|
E|----7/8--7/8--7/8-------------------7/8--7/8--7/8-------------------7/8----|

E|---------------------------------------------------------------------------|
B|---------------------------------------------------------------------------|
G|-------------12-12-12-12---9-----------------12-12-12-12---9-9-9-9---------|
D|--9-10-9-10--12-12-12-12---9-9-10-9-10-9-10--12-12-12-12---9-9-9-9---------|
A|--9-10-9-10--10-10-10-10---7-9-10-9-10-9-10--10-10-10-10---7-7-7-7---------|
E|--7/8--7/8-------------------7/8--7/8--7/8---------------------------------|

   Verse
E|---------------------------------------------------------------------------|
B|---------------------------------------------------------------------------|
G|--9-----------------11-11-11-11---9-----------------10-10-10-10------------|
D|--9-9-10-9-10-9-10--11-11-11-11---9-9-10-9-10-9-10--10-10-10-10------------|
A|--7-9-10-9-10-9-10--9--9--9--9----7-9-10-9-10-9-10--8--8--8--8-------------|
E|----7/8--7/8--7/8-------------------7/8--7/8--7/8--------------------------|

E|---------------------------------------------------------------------------|
B|------------------------------------------------8-8-8-8-8-8--7-7-7---------|
G|--9-----------------12-12-12-12---9---------------------------------7-7-7--|
D|--9-9-10-9-10-9-10--12-12-12-12---9-9-10-9-10---5-5-5-5-5-5--4-4-4---------|
A|--7-9-10-9-10-9-10--10-10-10-10---7-9-10-9-10-----------------------5-5-5--|
E|----7/8--7/8--7/8-------------------7/8--7/8-------------------------------|

			      Bridge	
E|--------------------------|------------------------------------------------|
B|--8-8-8-8-8-8--7-7-7-7-7--|------------------------------------------(x2)--|
G|--------------------------|--7-8--7-9--7-9---6-7--7-8--8-9-----------------|
D|--5-5-5-5-5-5--4-4-4-4-4--|--7-8--7-9--7-9---6-7--7-8--8-9-----------------|
A|--------------------------|--5/6--5/7--5/7---4/5--5/6--6/7-----------------|
E|--------------------------|------------------------------------------------|

   Verse
E|---------------------------------------------------------------------------|
B|---------------------------------------------------------------------------|
G|--9-----------------11-11-11-11---9-----------------10-10-10-10------------|
D|--9-9-10-9-10-9-10--11-11-11-11---9-9-10-9-10-9-10--10-10-10-10------------|
A|--7-9-10-9-10-9-10--9--9--9--9----7-9-10-9-10-9-10--8--8--8--8-------------|
E|----7/8--7/8--7/8-------------------7/8--7/8--7/8--------------------------|

							     Chorus/Outro
E|---------------------------------------------------------|----------------------------------|
B|---------------------------------------------------------|--------10-10-10-10--10-10-10-10--|
G|--9-----------------12-12-12-12---9------------7-8--8-9--|-----5----------------------------|
D|--9-9-10-9-10-9-10--12-12-12-12---9-9-10-9-10--7-8--8-9--|--2--5--7--7--7--7---7--7--7--7---|
A|--7-9-10-9-10-9-10--10-10-10-10---7-9-10-9-10--5/6--6/7--|--2--3----------------------------|
E|----7/8--7/8--7/8-------------------7/8--7/8-------------|--0-------------------------------|

E|---------------------|--19-19-19-------------------------------------|------------|
B|--------10-10-10-----|------------19-19-19--17-17-17----17-19--------|--20--------|
G|-----5------------7--|-------------------------------19--------------|------------|
D|--2--5--7--7--7---7--|-----------------------------------------------|------------|
A|--2--3------------5--|-----------------------------------------(x4)--|------------|
E|--0------------------|-----------------------------------------------|------------|

   _______________________________________________  _________________________
  | 1.					           | 2.
E|------------------------------------------------|--------------------------|
B|------------------------------------------(x2)--|--17-17~--17-17~--17-17~--|
G|--12-12-12--11-11-11--14-14-14--12-12-12--------|--------------------------|
D|------------------------------------------------|--------------------------|
A|--10-10-10--9--9--9---12-12-12--10-10-10--------|--------------------------|
E|------------------------------------------------|--------------------------|

E|--19-19-19-------------------------------|--------------12-12-------|------|
B|------------19-19-19--17-17-17----17-19--|--------------------------|--20--|
G|-------------------------------19--------|--------------9--9--------|------|
D|-----------------------------------------|--2--5--2--5--------------|------|
A|-----------------------------------------|--2--5--2--5---------(x4)-|------|
E|-----------------------------------------|--0--3--0--3--------------|------|

     E|--------------------------------------------------------------------------------|
     B|-------------------------------------------------------------------------(x )---|
     G|--12-12-12--11-11-11--14-14-14--12-12-12----------------------------------------|
  1. D|--------------------------------------------------------------------------------|
     A|--10-10-10--9--9--9---12-12-12--10-10-10----------------------------------------|
     E|--------------------------------------------------------------------------------|

     E|----------------------------------------|--19-19-19-----------------------------|
     B|-----------------------------------(x3)-|-----------19-19-19--17-17-17----17-19-|
     G|--16-x-x-16-x-x-16-x-x-16-x-x--9-9------|------------------------------19-------|
  2. D|----------------------------------------|---------------------------------------|
     A|----------------------------------------|---------------------------------------|
     E|----------------------------------------|---------------------------------------|

E|--------------12--12--------|----------------------------------------------||
B|----------------------------|----------------------------------------------||
G|--------------9---9---------|----------------------------------------------||
D|--2--5--2--5----------------|--2-2--2-2------------------------------------||
A|--2--5--2--5----------(x )--|--2-2--2-2------------------------------------||
E|--0--3--0--3----------------|--0-0--0-0------------------------------------||

===============================================================================
            
Hard to play? Try these video lessons and learn fast. | Correct




comments powered by Disqus
↑ Back to top | Tablatures and chords are parodies/interpretations of the original songs. You may use it for private study, scholarship, research or language learning purposes only