» » »

Bane, Release The Hounds Tabs (ver.1)

Artists:  A B C D E F G H I J K L M N O P Q R S T U V W X Y Z # 

Release The Hounds Tabs (ver.1)

Bane Tabs
Rating:
0/5 (0 votes)
Release The Hounds lessons Tabs too difficult? Try these video lessons and learn fast
                -------------------------------------------------------------------------------
-------------------------------------------------------------------------------

                    Verse
E|----------------|----------------------------------------------------------|
B|----------------|----------------------------------------------------------|
G|-----4-5-5-5-5--|-------4-5-5-5-5--7-7-7-7--4-4-4--2-2-2--5-5-5-5--2-2-2---|
D|--2--4-5-5-5-5--|--2-2--4-5-5-5-5--7-7-7-7--4-4-4--2-2-2--5-5-5-5--2-2-2---|
A|--2--2-3-3-3-3--|--2-2--2-3-3-3-3--5-5-5-5--2-2-2--0-0-0--3-3-3-3--0-0-0---|
E|--0-------------|--0-0-----------------------------------------------------|

E|---------------------------------------------------------------------------|
B|---------------------------------------------------------------------------|
G|-----------------4-5-5-5-5--7-7-7-7--4-4-4-4--5-5-5--7-7-7-----------------|
D|--5-5-5-5---2-2--4-5-5-5-5--7-7-7-7--4-4-4-4--5-5-5--7-7-7--7-7-7-7--5-5---|
A|--5-5-5-5---2-2--2-3-3-3-3--5-5-5-5--2-2-2-2--3-3-3--5-5-5--7-7-7-7--5-5---|
E|--3-3-3-3---0-0---------------------------------------------5-5-5-5--3-3---|

             Chorus
E|---------|-----------------------------------------------------------------|
B|---------|------------8-8-8------------------------------------------(x2)--|
G|--4-5----|--9-9--7-7----------------4--5---9-9--7-7--7-7-7-----------------|
D|------5--|------------5-5-5--5-7-7--4--5---------------------5-5--4-7------|
A|--2-3----|--7-7--5-5---------5-7-7--2--3---7-7--5-5--5-5-5---5-5--4-7------|
E|------3--|-------------------3-5-5---------------------------3-3--2-5------|

   Verse/Chorus
E|--------------------------|------------------------------------------------|
B|--------------------(x4)--|------------8-8-8-------------------------------|
G|--8---x-x-x--4-5-2--------|--9-9--7-7----------------5-5--9-9--7-7--7-7-7--|
D|--8---x-x-x--4-5-2--------|------------5-5-5--5-7-7--5-5-------------------|
A|--6/--x-x-x--2/3-0--------|--7-7--5-5---------5-7-7--2-3--7-7--5-5--5-5-5--|
E|--------------------------|-------------------3-5-5------------------------|

E|---------------------------------------------------------------------------|
B|---------------------------------------------------------------------------|
G|------------8---x-x-x--4-5-2--8---x-x-x--4-5--7-7--8---x-x-x--4-5-2--4-5---|
D|--5-5--4-7--8---x-x-x--4-5-2--8---x-x-x--4-5--7-7--8---x-x-x--4-5-2--4-5-5-|
A|--5-5--4-7--6/--x-x-x--2/3-0--6/--x-x-x--2/3--5-5--6/--x-x-x--2/3-0--2-3-5-|
E|--3-3--2-5---------------------------------------------------------------3-|

   Solo
E|---------------------------------------------------------------------------|
B|---------------------------------------------------------------------------|
G|---------------------------16-17-16-14-------------------------------------|
D|--14-14-17-14-14-16-14-14---------------17-16---14-14-17-14-14-16-14-14----|
A|---------------------------------------------------------------------------|
E|---------------------------------------------------------------------------|

E|---------------------------------------------------------------------------|
B|---------------17-15-------------------------------------------------------|
G|--16-17-16-14---------------------------------16-17-16-14-----------4-5----|
D|----------------------14-14-17-14-14-16-14-14--------------17-16----4-5----|
A|--------------------------------------------------------------------2-3----|
E|---------------------------------------------------------------------------|

	             Break/Solo Guitar
E|-----------------|---------------------------------------------------------|
B|-----------------|---------------------------------------------------------|
G|------4---4-5----|--------------------------16-17-16-14--------------------|
D|--5---4---4-5-5--|--14-14-17-14-14-16-14-14--------------17-16--14-14-17---|
A|--5---2---2-3-5--|---------------------------------------------------------|
E|--3-----------3--|---------------------------------------------------------|

E|---------------------------------------------------------------------------|
B|------------------------------17-15----------------------------------------|
G|-----------------16-17-16-14----------------------------------16-17-16-14--|
D|--14-14-16-14-14----------------------14-14-17-14-14-16-14-14--------------|
A|---------------------------------------------------------------------------|
E|---------------------------------------------------------------------------|

				  Break/Rythm Guitar	
E|---------------------|        |--------------------------------------------|
B|-----------------/12-|        |---------------------------------------(x2)-|
G|---------------------| Repeat |-------------------5-------------4-5--------|
D|--17-16---17---------| Break/ |--2-2-2--5--2-2-2-----2-2-2--5---4-5-5------|
A|-------------15------| Solo G.|--2-2-2-----2-2-2--3--2-2-2------2-3-5------|
E|---------------------|        |--0-0-0--3--0-0-0-----0-0-0--3-------3------|

   Outro
E|-------------------------(x4)---|------------------------------------------|
B|--------------------------------|------------------------------------------|
G|---------------------------3-3--|--9-9-------9-9-------9-9-------5-5--7-7--|
D|--4-4--5-5--7--2-2--3-5-4--3-3--|--9-9--9-9--9-9--9-9--9-9--9-9--5-5--7-7--|
A|--4-4--5-5--7--2-2--3-5-4--1-1--|--7-7--9-9--7-7--9-9--7-7--9-9--3-3--5-5--|
E|--2-2--3-3--5--0-0--1-3-2-------|-------7-7-------7-7-------7-7------------|

E|------------------------------------------|-------------------------(x2)---|
B|------------------------------------------|--------------------------------|
G|--9-9-------9-9-------9-9-------5-5--7-7--|---------------------------3-3--|
D|--9-9--9-9--9-9--9-9--9-9--9-9--5-5--7-7--|--4-4--5-5--7--2-2--3-5-4--3-3--|
A|--7-7--9-9--7-7--9-9--7-7--9-9--3-3--5-5--|--4-4--5-5--7--2-2--3-5-4--1-1--|
E|-------7-7-------7-7-------7-7------------|--2-2--3-3--5--0-0--1-3-2-------|

   _______________________________________________  ________________  _______
  | 1.					           | 2.              | 1. 2.
E|------------------------------------------------|-----------------|--------||
B|------------------------------------------(x4)--|-----------(x )--|--------||
G|--9-9-------9-9-------9-9-------5-5--7-7--------|--9-9-9-9--------|--9-----||
D|--9-9--9-9--9-9--9-9--9-9--9-9--5-5--7-7--------|-----------------|--9-----||
A|--7-7--9-9--7-7--9-9--7-7--9-9--3-3--5-5--------|--7-7-7-7--------|--7-----||
E|-------7-7-------7-7-------7-7------------------|-----------------|--------||

===============================================================================
            
Submit corrections

comments powered by Disqus
↑ Back to top | Bane Tabs for Release The Hounds. Lyrics for acoustic guitar and electric guitar. Tablatures and chords are parodies/interpretations of the original songs. You may use it for private study, scholarship, research or language learning purposes only