» » »

Bane, Pay The Price Tabs (ver.1)

Artists:  A B C D E F G H I J K L M N O P Q R S T U V W X Y Z # 

Pay The Price Tabs (ver.1)

Bane Tabs
 Rating:
4/5 (4 votes)
Pay The Price lessons Tabs too difficult? Try these video lessons and learn fast
1
                

                                Pay The Price
*=Palm Mute
/=Slide
~=Let Ring


Intro
Repeat(2X) 
e-------------------------------------------------------------------------
b-------------------------------------------------------------------------
g--9~--9-9--9/10--9-----5~-5-5--5/6--5------------------------------------
d--9~--9-9--9/10--9-----5~-5-5--5/6--5----9~--9-9--9/10--9---8~-----------
a--7~--7-7--7/8---7-----3~-3-3--3/4--3----9~--9-9--9/10--9---8~-----------
E-----------------------------------------7~--7-7--7/8---7---6~-----------      
       * *                 * *                * *

(After the little bass part)
Verse 1
e--------------------------------------
b--------------------------------------
g--------------------------------------
d-0-0-0-0-0-0-0-0-0-0-0---9/10--9------
a-0-0-0-0-0-0-0-0-0-0-0---9/10--9------
E-0-0-0-0-0-0-0-0-0-0-0---7/8---7------
  * * * * * * * * * * *             
                   Again i pay the price....


(Repeat 3X)
Verse 2
e---------------------------------------\
b--------------------------------------- \
g---------------------------------------  \ 
d--------------9/10--9------------------   \
a-00-00-00-000-9/10--9------------------    \
E-00-00-00-000-7/8---7------------------     \
  ** ** ** ***                                \
                                               \Repeat 2X 
Verse 3                                       /
e---------------------------------------     / 
b---------------------------------------    /
g---------------------------------------   / 
d-----------------9/10--9---------------  /
a-0-0000-0000-000-9/10--9--------------- /
E-0-0000-0000-000-7/8---7---------------/
  * **** **** ***

Main Verse
e----------------------------------------------S---------
b---------------------------------------------P-C--------
g-9~----5~----7~--7/10~---9-9-9--5--7--7/10~---I-R-------
d-9~----5~----7~--7/10~---9-9-9--5--7--7/10~----C-A------
a-7~----3~----5~--5/8~----7-7-7--3--5--5/8~------K-P-----
E---------------------------------------------------E----

e----------------------------------------------\
b---------------------------------------------- \
g-9----5----7--7/10------9---5---7--7/10-------  \
d-9----5----7--7/10------9---5---7--7/10-------   \
a-7----3----5--5/8-------7---3---5--5/8--------    \ 
E----------------------------------------------     \
  8X   4X   4X   16X     8X  4X  4X   8X             \
Again left with this lesson.....                      \
                                                       /Repeat 2X
                                                      /
e-----------------------------------------------     /
b-----------------------------------------------    /
g------------9~-----------10~-------------------   /
d------------9~-----------10~-------------------  /
a--00-000-0--7~--00-0000--8~----00-0000--------- /
E--00-000-0------00-0000--------00-0000---------/
   ** *** *      ** ****       \** ****/
                                \     /
                                 \   /
                                  \ /
                             This last set of 
                             zero's is excluded
                             The 2nd time.

e-----------------------------------------------
b-----------------------------------------------
g------------------------------9----------------
d------------------------------9----------------
a-000-00-000-00-000-00--000000-7----------------
E-000-00-000-00-000-00--000000------------------
  *** ** *** ** *** **  ******
                        But it rips us apart.....


Repeats 3X(Around the last strums include a couple of more 0's)
e-----------------------------------------------
b-----------------------------------------------
g--------------------------9----8---------------
d--------------------------9----8---------------
a-000-00-000-00-000-00--00-7-00-6-00------------
E-000-00-000-00-000-00--00---00---00------------
  *** ** *** ** *** **  **   **   **
                                Man old man i looked up to.....

              


Main Verse
e----------------------------------------------S---------
b---------------------------------------------P-C--------
g-9~----5~----7~--7/10~---9-9-9--5--7--7/10~---I-R-------
d-9~----5~----7~--7/10~---9-9-9--5--7--7/10~----C-A------
a-7~----3~----5~--5/8~----7-7-7--3--5--5/8~------K-P-----
E---------------------------------------------------E----

e----------------------------------------------\
b---------------------------------------------- \
g-9----5----7--7/10------9---5---7--7/10-------  \
d-9----5----7--7/10------9---5---7--7/10-------   \
a-7----3----5--5/8-------7---3---5--5/8--------    \ 
E----------------------------------------------     \
  8X   4X   4X   16X     8X  4X  4X   8X             \
  And you...........
                                                       /Repeat 2X
                                                      /
e-----------------------------------------------     /
b-----------------------------------------------    /
g------------9~-----------10~-------------------   /
d------------9~-----------10~-------------------  /
a--00-000-0--7~--00-0000--8~----00-0000--------- /
E--00-000-0------00-0000--------00-0000---------/
   ** *** *      ** ****       ** ****
                                        i pay the price.

LYRICS:

Again left with this lesson
that is not mine to learn tears regret painful questions 
it smashes your spine
steals all that time 
and takes the eyes 
right out of your head but 
we don't point a finger
nobody says a word
to you 
but it rips us apart 
that old man I looked up to 
passed out on thefloor 
that stupid crazy motherf**ker 
taking all those lives 
the one thelove my mother
poisoned from inside 
oh what it did to you
what it did to us 
it ripped us apart 

(Guitar)

and you how did it get to you
the smartest of us all
it knocked you down 
and beat you up 
but neither you or it
would ever let it go 
again I pay the price
I PAY THE PRICE 


And thats the whole song, it actually took more
time tabing it out than figuring it out, ive 
looked around for this song and never found it 
so i got my guitar and figured it out, its an 
EASY song. tony and Gayvid melapelan.

                            MAKEMOVE RULES.EAST LOS ANGELES HARDCORE
            
Submit corrections

comments powered by Disqus
↑ Back to top | Bane Tabs for Pay The Price. Lyrics for acoustic guitar and electric guitar. 1 Tablatures and chords are parodies/interpretations of the original songs. You may use it for private study, scholarship, research or language learning purposes only