» » »

Lay The Blame Tabs (ver.1)

Artists:  A B C D E F G H I J K L M N O P Q R S T U V W X Y Z # 

Lay The Blame Tabs (ver.1)

Bane
Rating:
0/5 (0 votes)

Hard to play? Try these video lessons and learn fast.
                -------------------------------------------------------------------------------
-------------------------------------------------------------------------------


   Intro
E|----------------------|-----------------------------|----------------------|
B|----------------(x2)--|-----------------------(xX)--|----------------------|
G|--9--9-5-4--3---------|---------------9-10-9--------|--9-9-9-9-9--5-5-5----|
D|--9-------------------|--2-2-2-2-2-2--9-10-9--------|--9-9-9-9-9--5-5-5----|
A|--7--7-3-2------------|--2-2-2-2-2-2--7-8--7--------|--7-7-7-7-7--3-3-3----|
E|----------------------|--0-0-0-0-0-0----------------|----------------------|

E|---------------------------------------------------------------------------|
B|---------------------------------------------------------------------------|
G|--7-7-7--10-10-10-10-10-10---9-9-9-9-9--5-5-5--7-7-7--10-10-10-10-10-10----|
D|--7-7-7----------------------9-9-9-9-9--5-5-5--7-7-7-----------------------|
A|--5-5-5--8--8--8--8--8--8----7-7-7-7-7--3-3-3--5-5-5--8--8--8--8--8--8-----|
E|---------------------------------------------------------------------------|

   Verse
E|---------------------------------------------------------------------------|
B|---------------------------------------------------------------------------|
G|--9-9-9-9-9--5-5-5--7-7-7--10-10-10-10-10-10---9-9-9-9-9--5-5-5--7-7-7-----|
D|--9-9-9-9-9--5-5-5--7-7-7----------------------9-9-9-9-9--5-5-5--7-7-7-----|
A|--7-7-7-7-7--3-3-3--5-5-5--8--8--8--8--8--8----7-7-7-7-7--3-3-3--5-5-5-----|
E|---------------------------------------------------------------------------|

E|---------------------------------------------------------------------------|
B|---------------------------------------------------------------------------|
G|--10-10-10-10--*-*-*-*-*---9-9-9-9--*-*-*-*-*--10-10-10-10-10--*-*-*-*-*---|
D|---------------2-2-2-2-2---9-9-9-9--2-2-2-2-2------------------2-2-2-2-2---|
A|--8--8--8--8---2-2-2-2-2---7-7-7-7--2-2-2-2-2--8--8--8--8--8---2-2-2-2-2---|
E|---------------0-0-0-0-0------------0-0-0-0-0------------------0-0-0-0-0---|

   Reepat Verse

   Chorus
E|-----------------------------------------------------|---------------------|
B|-----------------------------------------------(x4)--|---------------------|
G|--*-*-*-*-*-*-*-*-*-*--4-5-4--4-2---9--10--12--------|--*-*-*-*-*-*-*-*-*--|
D|--2-2-2-2-2-2-2-2-2-2--------------------------------|--2-2-2-2-2-2-2-2-2--|
A|--2-2-2-2-2-2-2-2-2-2--2/3/2--2-0---7--8---10--------|--2-2-2-2-2-2-2-2-2--|
E|--0-0-0-0-0-0-0-0-0-0--------------------------------|--0-0-0-0-0-0-0-0-0--|

   Verse/Outro
E|-----------------------------------------------|---------------------------|
B|------------------------------------------(x3)-|---------------------------|
G|--9-9-9-9-9--5-5-5--7-7-7--10-10-10-10-10------|--9-9-9-9-9--5-5-5--7-7-7--|
D|--9-9-9-9-9--5-5-5--7-7-7----------------------|--9-9-9-9-9--5-5-5--7-7-7--|
A|--7-7-7-7-7--3-3-3--5-5-5--8--8--8--8--8-------|--7-7-7-7-7--3-3-3--5-5-5--|
E|-----------------------------------------------|---------------------------|

E|---------------------------------------------------------------------------||
B|---------------------------------------------------------------------------||
G|--10-10-10-10--*-*-*-*-*---9-9-9-9--*-*-*-*-*--10-10-10-10-10--*-*-*-*-*---||
D|---------------2-2-2-2-2---9-9-9-9--2-2-2-2-2------------------2-2-2-2-2---||
A|--8--8--8--8---2-2-2-2-2---7-7-7-7--2-2-2-2-2--8--8--8--8--8---2-2-2-2-2---||
E|---------------0-0-0-0-0------------0-0-0-0-0------------------0-0-0-0-0---||

===============================================================================
            
Hard to play? Try these video lessons and learn fast. | Correct




comments powered by Disqus
↑ Back to top | Tablatures and chords are parodies/interpretations of the original songs. You may use it for private study, scholarship, research or language learning purposes only